Bluebottle Kiss

Ounce Of Your Cruelty

Bluebottle Kiss

tabs

save to print version add songbook text version e-mail correct tuner
chordsukulelecavacokeyboardtabbassdrumsharmonicaflute Guitar Pro
close

there isn't a video lesson for this song

chords

Ounce Of Your Cruelty

	  		tabbed by Josh Harrex 
 
I watched Jamie play this several times and asked him questions  
about how to play it so most of it should be correct. 
 
INTRO 
I'm not writing out the strumming pattern, just the chord changes 
but its pretty well constant up down strumming. 
 
the intro and verse is mainly the same chord with a different  
bass note. Just hold your index finger down on the 2's and use  
your middle finger to hit the G note. 
 
e---2------------2------------------- 
b---2------------2------------------- 
G---2------------2------------------- 
D---0------------0------------------- repeat twice 
A---0------------x------------------- 
E----------------3------------------- 
 
VERSE 
I'll write it with the words to help: 
 
You're a waitress who hung out 
e---2---------------2------------------- 
b---2---------------2------------------- 
G---2---------------2------------------- 
D---0---------------0------------------- 
A---0---------------x------------------- 
E-------------------3------------------- 
 
With the customers too  
e---2---------------2------------------- 
b---2---------------2------------------- 
G---2---------------2------------------- 
D---0---------------0------------------- 
A---0---------------x------------------- 
E-------------------3------------------- 
 
long now It seems the curtain's closed 
e--2----------------2---------------- 
b--3----------------3---------------- 
G--0----------------0---------------- 
D--0----------------0---------------- 
A--2----------------x---------------- 
E-------------0h2-3-3---------------- 
 
And the lights are on 
e--------2-------------------------- 
b--------3-------------------------- 
G--------0-------------------------- 
D--------0-------------------------- 
A--------2-------------------------- 
E--3p2-0---------------------------- 
 
I guess there's going to be no encore for us 
e--------2-------------------------- 
b--------3-------------------------- 
G--------0-------------------------- 
D--------0-------------------------- 
A--------x-------------------------- 
E--0h2-3-3-------------------------- 
 
then back to the beginning of the verse. 
 
Ben's very prominent lead is: 
 
e---------------------------------- 
b--------10~----------------------- 
G---9~~------9h11~~---------------- 
D---------------------------------- 
A---------------------------------- 
E---------------------------------- 
 
CHORUS 
 
How can I play that  
e------------------------------------ 
b--3--------------3------------------ 
G--0--------------0------------------ 
D--2--------------0------------------ 
A--2--------------2------------------ 
E--0----------0h2-3------------------ 
 
part when I'm jogging in your slow lane now ? 
e---2---------------2------------------- 
b---2---------------2------------------- 
G---2---------------2------------------- 
D---0---------------0------------------- 
A---0---------------x------------------- 
E-------------------3------------------- 
 
then repeat. 
 
END 
I'll try do this to rhythem aswell 
 
Give me an ounce of your cruelty 
e---2---------------2------------------- 
b---2---------------2------------------- 
G---2---------------2------------------- 
D---0---------------0------------------- 
A---0---------------x------------------- 
E-------------------3------------------- 
 
And you'll leave it alone  
e--------------2-2-2-2----2-2-2-2----2-2-2-2---------- 
b--------------3-3-3-3----3-3-3-3----3-3-3-3---------- 
G--------------0-0-0-0----0-0-0-0----0-0-0-0---------- 
D--------------0-0-0-0----0-0-0-0----0-0-0-0---------- 
A-----------2-----------2----------2------------------ 
E----------------------------------------------------- 
 
and let it rot 
e-------2-2-2-2-------2-2-2-2------------- 
b-------3-3-3-3-------3-3-3-3------------- 
G-------0-0-0-0-------0-0-0-0------------- 
D-------0-0-0-0-------0-0-0-0------------- 
A----------------------------------------- 
E----2--------------2--------------------- 
 
e-----------2-2-2-2----2-2-2-2----2-2-2-2---------- 
b-----------3-3-3-3----3-3-3-3----3-3-3-3---------- 
G-----------0-0-0-0----0-0-0-0----0-0-0-0---------- 
D-----------0-0-0-0----0-0-0-0----0-0-0-0---------- 
A-------------------------------------------------- 
E----0-2-3-----------3----------3------------------ 
 
An ounce of your cruelty means 
e------2-2-2-2---------2-2-2-2----2-2-2-2---------- 
b------3-3-3-3---------3-3-3-3----3-3-3-3---------- 
G------0-0-0-0---------0-0-0-0----0-0-0-0---------- 
D------0-0-0-0---------0-0-0-0----0-0-0-0---------- 
A-------------------------------------------------- 
E----3---------------3----------3------------------ 
 
You'll stay at home 
e---------2-2-2-2---------2-2-2-2----2-2-2-2---------- 
b---------3-3-3-3---------3-3-3-3----3-3-3-3---------- 
G---------0-0-0-0---------0-0-0-0----0-0-0-0---------- 
D---------0-0-0-0---------0-0-0-0----0-0-0-0---------- 
A----------------------------------------------------- 
E-------2---------------2----------2------------------ 
 
And deprive me of your pleasure 
e---------------------------------- 
b---------------------------------- 
G---------------------------------- 
D---------------------------------- 
A---------------------------------- 
E----0----------------------------- 
 
then break back into the verse. Jamie played some funky chord though  
at the end 
when they sing 'no way around it', i pretty sure its: 
 
e---2------------------------------- 
b---5------------------------------- 
G---2------------------------------- 
D---0------------------------------- 
A---x------------------------------- 
E---3------------------------------- 
 
Keep strumming this until the song finshes. 
 
 
 

		  

Full key step upFull key step up
Half key step upHalf key step up
Half key step downHalf key step down
Full key step downFull key step down
hide glossary

See also:

tabs The Beautiful Girls - Blackbird tabs Joss Stone - Super Duper Love tabs INXS - Heaven Sent tabs Beaverloop - Funkywrench tabs Blackman Bertie - Favourite Jeans tabs Baby Animals - Don't Tell Me What To Do
e-chords

Other versions:

tabs Bluebottle Kiss - Ounce Of Your Cruelty
auto scroll beats size up size down change color hide chords drawings
tab show chords e-chords YouTube Clip e-chords hide all tabs e-chords go to top tab

share