Blood Orange

Sutphin Boulevard

Blood Orange

tabs nolevel nolevel

by  JOAOEWERTON

save to print version add songbook text version e-mail correct tuner
chordsukulelecavacokeyboardtabbassdrumsharmonicaflute Guitar Pro
close

there isn't a video lesson for this song

chords

Sutphin Boulevard

	  		
------------------------------------------------------------------------------- 
                      Sutphin Boulevard - Blood Orange 
------------------------------------------------------------------------------- 
Tabbed by: Tom Mitchell 

Intro & Verse 
e|--------------------------------------------------------------------------| 
B|-15-----------------------------------------------------------------------| 
G|-----16--14--16------14--16-----------------------------------------------| 
D|-----------------16-------------------------------------------------------| 
A|--------------------------------------------------------------------------| 
E|--------------------------------------------------------------------------| 

Chorus 
e|-------------------------------------------------------------------------| 
B|-12--10--12--10-------------10----------------------------7--------------| 
G|-----------------11--9--11------11--9------9--7--9--7--------9--7--9-----| 
D|---------------------------------------12--------------9--------------9--| 
A|-------------------------------------------------------------------------| 
E|-------------------------------------------------------------------------| 

Outro 
e|-------------12--10------14--17--14------14----------| 
B|-12--10--------------12--------------17------15--17--| 
G|---------12------------------------------------------| 
D|-----------------------------------------------------| 
A|-----------------------------------------------------| 
E|-----------------------------------------------------| 

There's 2 guitar parts in the outro and I've combined them, play it however you think sounds best :) 
		  

See also:

tabs Deep Purple - Deep Purple - Smoke On The Water tabs Albert Hammond Jr - Miss Myrtle tabs Deep Purple - The Unwritten Law tabs Deep Purple - Pictures of Home tabs Deep Purple - Space Truckin tabs Deep Purple - Rat Bat Blues
e-chords

Other versions:

tabs Blood Orange - Sutphin Boulevard
auto scroll beats size up size down change color hide chords drawings
tab show chords e-chords YouTube Clip e-chords hide all tabs e-chords go to top tab

share with facebook