Blindside

Pitiful

Blindside

tabs

by  ANDINHO G3

save to print version add songbook text version e-mail correct tuner
chordsukulelecavacokeyboardtabbassdrumsharmonicaflute Guitar Pro
close

there isn't a video lesson for this song

chords

Pitiful

Year: 2002 - Album: Silence

	  		Intro            {}= Play one time only 
 
E------------------------------------------  
B------------------------------------------ 
G-{8}?-8/6\11?-11/8--8?-8/6?-11/8?-11/8--8? RING  2X 
D-{8}?-x/x\x---x/x---x?-x/x?-x/x---x/x---x- 
A?{6}?-6/4\9---9/6---6?-6/4?-9/6---9/6---6-    
E------------------------------------------ 
 
VERSE 
 
E------------------------------- 
B------------77-66666-----------   8x 
G?6h8-88-888-------------------- 
D------------------------------- 
A------------------------------- 
E------------------------------- 
 
PRE-CORO 
 
E--------------------------- 
B---------------------------   1X 
G?-8\11/8------------------- 
D?-8\11/8------------------- 
A?-6\9/6-------------------- 
E--------------------------- 
 
CORO (INTRO)- 4X 
 
VERSO- 8X 
 
PRE-CORO- 1X 
 
CORO (INTRO)- 4X 
 
1ST BRIDGE 
 
E----------------------------------------- 
B-----------------------------------------   2X 
G--8-STRUM--10-STRUM---------------------- 
D--8--------10--------7-STRUM--8-STRUM---- 
A--6--------8---------7--------8---------- 
E---------------------5--------6---------- 
 
2 BRIDGE 
 
E----------------------- 
B--77-6\11--11-6-7------    4X 
G----------------------- 
D----------------------- 
A----------------------- 
E----------------------- 
 
3 BRIDGE 
 
E------------12b---------- 
B--7-6-7-6-7-----7-6------   8X 
G------------------------- 
D------------------------- 
A------------------------- 
E------------------------- 
 
PRE- CORO- 1X 
 
CORO (INTRO)- 7X 
 
OUTRO 
 
E-------------------------- 
B--------------------------   1X 
G-------------------------- 
D--/8-4-3--/8-4-1---------- 
A-------------------------- 
E-------------------------- 
 

		  

See also:

tabs Paul Wilbur - Adonai tabs 12-Stones - The Way I Feel (V.2) tabs Vineyard - Senhor Te Quero - Intro tabs 12-Stones - Stay tabs Flatt & Scruggs - Cripple Creek tabs 12-Stones - In my head
e-chords

Other versions:

tabs Blindside - Pitiful
auto scroll beats size up size down change color hide chords drawings
tab show chords e-chords YouTube Clip e-chords hide all tabs e-chords go to top tab

share