Blindside

Room To Breath

Blindside

tabs

by  VASODEBARRO

save to print version add songbook text version e-mail correct tuner
chordsukulelecavacokeyboardtabbassdrumsharmonicaflute Guitar Pro
close

there isn't a video lesson for this song

chords

Room To Breath

	  		Tuning - Drop D 
Get this song, for any of you guys that are into music like Limp Bizkit + Linkin Park, Disturbed and ***,get Blindspott they are honestly wicked.  
(Support New Zealand music yeah!!!) 
I know that putting the times in is stupid and you'd have to be a [email protected]#!king idiots to not get it but who cares I was bored. 

Tip>> If the interlude looks mucked up, don't worry just put your WordPad on landscape, 
should be sweet az after that! 

Intro - strum this with light distortion, you'll get the gist of it 
e--------------------------|-----------| 
b---------8---9--8---------|-----------| 
g-----5---7---8--7---------|-10--12----| 
d-8---3---5---6--5---3--5--|-x---x-----|B4 verse starts (0:15) 
a-6---3---5---6--5---3--5--|-8---10----| 
D-6---3---5---6--5---3--5--|-----------| 

Verse - Some kind of clean tone echo effect used here (0:18) 
e------------------------------------| 
b------------------------------------| 
g------------------------------------| 
d-----9-9-7-7------------------------| 
a-7-7---------10-9-9h10p9-9h10p9-----| 
D------------------------------------| 

Pre - Chorus with distortion (0:49) 
e--------------------------------| 
b--------------------------------| 
g-----4-4-2-2--------------------| 
d-2-2---------5-5-4-4h5p4-4h5p4--| 
a--------------------------------| 
D--------------------------------| 

Chorus - Distortion (1:17) 
e--------------------------| 
b---------8---9--8---------| 
g-----5---7---8--7---------| 
d-8---3---5---6--5---3--5--| 
a-6---3---5---6--5---3--5--| 
D-6---3---5---6--5---3--5--| 
"whould it make you mad if I..." 

Verse (1:25) 
e------------------------------------| 
b------------------------------------| 
g------------------------------------| 
d-----9-9-7-7------------------------| 
a-7-7---------10-9-9h10p9-9h10p9-----| 
D------------------------------------| 

Pre - Chorus (1:56) 
e--------------------------------| 
b--------------------------------| 
g-----4-4-2-2--------------------| 
d-2-2---------5-5-4-4h5p4-4h5p4--| 
a--------------------------------| 
D--------------------------------| 

Chorus - Distortion (2:14) 
e--------------------------|-------------| 
b---------8---9--8---------|-------------| 
g-----5---7---8--7---------|-------------| 
d-8---3---5---6--5---3--5--|------8------| 
a-6---3---5---6--5---3--5--|------6------|Chorus 
e--------------------------| 
b---------8---9--8---------| 
g-----5---7---8--7---------| 
d-8---3---5---6--5---3--5--| 
a-6---3---5---6--5---3--5--| 
D-6---3---5---6--5---3--5--| 

Chorus 
e--------------------------| 
b---------8---9--8---------| 
g-----5---7---8--7---------| 
d-8---3---5---6--5---3--5--| 
a-6---3---5---6--5---3--5--| 
D-6---3---5---6--5---3--5--| 

Ending (3:44) 
e---------| 
b---------| 
g---------| 
d-8-------| 
a-6-------|
	      

Full key step upFull key step up
Half key step upHalf key step up
Half key step downHalf key step down
Full key step downFull key step down
hide glossary

See also:

tabs Caedmon's Call - April Showers tabs The Raveonettes - Hark! The Herald Angels Sing tabs Vineyard - Vim Para Adorar-te tabs The Raveonettes - joy to the world tabs The Raveonettes - the first noel tabs Hillsong - Healer
e-chords

Other versions:

tabs Blindside - Room To Breath
auto scroll beats size up size down change color hide chords drawings
tab show chords e-chords YouTube Clip e-chords hide all tabs e-chords go to top tab

share