Blindside

You Can Hide It

Blindside

tabs

by  VASODEBARRO

save to print version add songbook text version e-mail correct tuner
chordsukulelecavacokeyboardtabbassdrumsharmonicaflute Guitar Pro
close

there isn't a video lesson for this song

chords

You Can Hide It

Year: 2002 - Album: Silence

	  		Tuning: E flat (Eb Ab Db Gb Bb eb) 

Verse 
NOTE: All opens hit on thinkest string are palm muted 
|-------------------------------------------------------------------------------------------------| 
|-------------------------------------------------------------------------------------------------| 
|-------------------------------------------------------------------------------------------------| 
|-----------------------------------------------------------------------------12------------------| 
|-14-----14-----14-----14-----15---15---14-----14-----14-----14-----15---12--------12---11---12---| 
|----0-0----0-0----0-0----0-0----0----0----0-0----0-0----0-0----0-0----0----0----0----0----0----0-| 

										First time 
|-----------------------------------------------------------------------------|-------------------| 
|-----------------------------------------------------------------------------|-------------------| 
|-----------------------------------------------------------------------------|-------------------| 
|-----------------------------------------------------------------------------|---------------9---| 
|-11-----11-----11-----11-----12---12---11-----11-----11-----11-----12---12---|-12---11---7-------| 
|----0-0----0-0----0-0----0-0----0----0----0-0----0-0----0-0----0-0----0----0-|----0----0---0---0-| 

Last time 
|-------------------------| 
|-------------------------| 
|-11-11-14-14-13-13-11-11-| 
|-x--x--x--x--x--x--x--x--| 
|-9--9--12-12-11-11-9--9--| 
|-------------------------| 

Chorus 
				   First time    Second time 
|---------------------------------|-------------|-----------------| 
|---------------------------------|-------------|-----------------| 
|-5-5-5-5-5-5-5-5-5-5-5-5-5-5-5-5-|-------------|-----------------| 
|-5-5-5-5-5-5-5-5-5-5-5-5-5-5-5-5-|-2-2---2--2~-|-2-2----5--7--2~-| 
|-3-3-3-3-3-3-3-3-3-3-3-3-3-3-3-3-|-2-2---2--2~-|-2-2--2-5--7--2~-| 
|---------------------------------|-0-0---0--0~-|-0-0--0-3--5--0~-| 

Third time     Last time 
|----------0~-|-----------------| 
|----------0~-|-----------------| 
|----------0~-|-----------------| 
|-2-2---5--7~-|-2-2----5--7--2~-| 
|-2-2---5--7~-|-2-2--2-5--7--2~-| 
|-0-0---3--5~-|-0-0--0-3--5--0~-| 

Repeat Verse and Chorus again 

Bridge 
			    1st time  2nd     3rd       4th 
|--------------------------|---------|-------|---------|-------| 
|--------------------------|---------|-------|---------|-------| 
|---16---17---16---14---12-|-7--7-9~-|-7--5~-|-7--7-9~-|-7--5~-| 
|---x----x----x----x----x--|-x--x-x--|-x--x--|-x--x-x--|-x--x--| 
|---14---15---14---12---10-|-5--5-7~-|-5--3~-|-5--5-7~-|-5--3~-| 
|-0----0----0----0----0----|---------|-------|---------|-------| 

Outro Chorus 
|-------------------------| 
|-------------------------| 
|-5-5---5-5---------------| 
|-5-5---5-5---2-2---2--2~-| 
|-3-3---3-3---2-2---2--2~-| 
|-------------0-0---0--0~-| 

|---------------------------------|-----------------| 
|---------------------------------|-----------------| 
|-5-5-5-5-5-5-5-5-5-5-5-5-5-5-5-5-|-----------------| 
|-5-5-5-5-5-5-5-5-5-5-5-5-5-5-5-5-|-2-2----5--7--2~-| 
|-3-3-3-3-3-3-3-3-3-3-3-3-3-3-3-3-|-2-2--2-5--7--2~-| 
|---------------------------------|-0-0--0-3--5--0~-| 

|----------0~-|-----------------| 
|----------0~-|-----------------| 
|----------0~-|-----------------| 
|-2-2---5--7~-|-2-2----5--7--2~-| 
|-2-2---5--7~-|-2-2--2-5--7--2~-| 
|-0-0---3--5~-|-0-0--0-3--5--0~-| 

|---------------------------------|-------------|-----------------| 
|---------------------------------|-------------|-----------------| 
|-5-5-5-5-5-5-5-5-5-5-5-5-5-5-5-5-|-------------|-----------------| 
|-5-5-5-5-5-5-5-5-5-5-5-5-5-5-5-5-|-2-2---2--2~-|-2-2----5--7--2~-| 
|-3-3-3-3-3-3-3-3-3-3-3-3-3-3-3-3-|-2-2---2--2~-|-2-2--2-5--7--2~-| 
|---------------------------------|-0-0---0--0~-|-0-0--0-3--5--0~-| 

|----------0~-|----------------| 
|----------0~-|----------------| 
|----------0~-|----------------| 
|-2-2---5--7~-|-2-2---5--7--2~-| 
|-2-2---5--7~-|-2-2---5--7--2~-| 
|-0-0---3--5~-|-0-0---3--5--0~-| 


		  

Full key step upFull key step up
Half key step upHalf key step up
Half key step downHalf key step down
Full key step downFull key step down
hide glossary

See also:

tabs Paul Wilbur - Adonai tabs 12-Stones - The Way I Feel (V.2) tabs Vineyard - Senhor Te Quero - Intro tabs 12-Stones - Stay tabs Flatt & Scruggs - Cripple Creek tabs 12-Stones - In my head
e-chords

Other versions:

tabs Blindside - You Can Hide It
auto scroll beats size up size down change color hide chords drawings
tab show chords e-chords YouTube Clip e-chords hide all tabs e-chords go to top tab

share