BlessTheFall

Don't Say Goodbye

BlessTheFall

tabs Expert expert

by  IRONPOWER4EVER

save to print version add songbook text version e-mail correct tuner
chordsukulelecavacokeyboardtabbassdrumsharmonicaflute Guitar Pro
close

there isn't a video lesson for this song

chords

Don't Say Goodbye

	  		


Intro & Verse: Tremolo pickeD 
e|---------------------------------------------------------------| 
B|---------------------------------------------------------------| 
G|---------------------------------------------------------------| 
D|-12-0-0-0-12-0-0-0-7h8-0-0-0-12-0-0-0-12-0-0-0-5h7-0-7h8-------| 
A|---------------------------------------------------------------| 
D|---------------------------------------------------------------| 

e|---------------------------------------------------------------| 
B|---------------------------------------------------------------| 
G|---------------------------------------------------------------| 
D|-12-0-0-0-12-0-0-0-7h8-0-0-0-12-0-0-0-12-0-0-0-5h7-0-7h8-------| 
A|---------------------------------------------------------------| 
D|---------------------------------------------------------------| 

e|---------------------------------------------------------------| 
B|---------------------------------------------------------------| 
G|---------------------------------------------------------------| 
D|-12-0-0-0-12-0-0-0-7h8-0-0-0-12-0-0-0-12-0-0-0-5h7-0-7h8-------| 
A|---------------------------------------------------------------| 
D|---------------------------------------------------------------| 

e|----------------------------------------------| 
B|----------------------------------------------| 
G|----------------------------------------------| 
D|-12-0-0-0-12-0-0-0-7h8-0-0-0-14-14-14---------| 
A|----------------------------------------------| 
D|----------------------------------------------| (4x) 

Chorus: 
e|------------------------------------------| 
B|------------------------------------------| 
G|------------------------------------------| 
D|-88888888-55555555-00000000-33333333------| 
A|-88888888-55555555-00000000-33333333------| 
D|-88888888-55555555-00000000-33333333------| (2x) 

e|------------------------| 
B|------------------------| 
G|------------------------| 
D|-88888888-55555555------| 
A|-88888888-55555555------| 
D|-88888888-55555555------| 

Verse: Tremolo pickeD 
e|--------------------------------------------------------------------------| 
B|--------------------------------------------------------------------------| 
G|--------------------------------------------------------------------------| 
D|------------------------------------------------7----7-8-10-8-7-10/12-----| 
A|---------------8-7----7------------10-8-7-8-10---10-----------------------| 
D|-000000000000-----10---000000000------------------------------------------| 

e|------------------------------------------------| 
B|------------------------------------------------| 
G|------------------------------------------------| 
D|------------------8-----------------------------| 
A|---------------10---7-8-------------------------| 
D|-888888888888----------55555555555-5-8-3-7------| (2x) 

e|--------------------------------------------------------------------| 
B|--------------------------------------------------------------------| 
G|--------------------------------------------------------------------| 
D|--------------------------------------------------------------------| 
A|--------------------------------------------------------------------| 
D|-000000-00000000000000-00000000000000-00000000000000-000000---------| 

RepeAt intro riff once 
RepeAt chorus 

MiDDle 8 - (2:15): 
e|---------------------------------------| 
B|---------------------------------------| 
G|---------------------------------------| 
D|-0----------10--------8--------5-------| 
A|-0----------10--------8--------5-------| 
D|-0----------10--------8--------5-------| (2x) 

e|-------------13----------|-------------13-------------| 
B|----15----15---15----15-|----15----15----15----15-----| 
G|-14----14---------14----|-14----14----------14--------| 
D|-------------------------|----------------------------| 
A|-------------------------|----------------------------| 
D|-------------------------|----------------------------| 

e|-------------12----------|-------------12-------------| 
B|----15----15---15----15-|----15----15----15----15-----| 
G|-14----14---------14----|-14----14----------14--------| 
D|-------------------------|----------------------------| 
A|-------------------------|----------------------------| 
D|-------------------------|----------------------------| 

e|--------------12----------|-12-------13------15-------13-------12h13------| 
B|----10----10----10----10-|----10-------10------10-------10----------------| 
G|-10----10----------10----|-------10-------10------10-------10-------------| 
D|--------------------------|-----------------------------------------------| 
A|--------------------------|-----------------------------------------------| 
D|--------------------------|-----------------------------------------------| (2x) 

BriDGe (3:00): 
e|-----------------------------------------------------------------------| 
B|-----------------------------------------------------------------------| 
G|-1010101010101010--14-14-14-14--101010101010--15-15-15--14-14-14-------| 
D|-x-x-x-x-x-x-x-x----x--x--x--x----x-x-x-x-x-x--x--x--x---x--x--x-------| 
A|-8-8-8-8-8-8-8-8----12-12-12-12--8-8-8-8-8-8---13-13-13--12-12-12------| 
D|-----------------------------------------------------------------------| 

e|------------------------------------| 
B|------------------------------------| 
G|-9-9-9-101010--121212--9-9-9--------| 
D|-x-x-x--x-x-x---x-x-x---x-x-x-------| 
A|-7-7-7--8-8-8--101010--7-7-7--------| 
D|------------------------------------| (2x) 

e|-------------------------------------------------------------------| 
B|-------------------------------------------------------------------| 
G|-------------------------------------------------------------------| 
D|-------------------------------------------------------------------| 
A|-------------------------------------------------------------------| 
D|-000000--00000000000-00000000000-000000000000-000000000000---------| 
                                                                                          
                      . . . . 

e|----------------------------------------------------| 
B|----------------------------------------------------| 
G|----------------------------------------------------| 
D|-----------------------------------------------0----| 
A|-----------------------------------------------0----| 
D|-00000000000--00000000000-00000000000-000000--------| 
  
		  

See also:

tabs All American Rejects - Gives You Hell tabs That 70's show - That 70's show theme song tabs A Day to Remember - All I Want tabs Panic! At The Disco - Build God Then We'll Talk tabs Johan Sebastian Bach - Toccata em Sol. tabs Danny Elfman - Simpsons
e-chords

Other versions:

tabs Goldfinger - Don't say goodbye tabs The Veronicas - Don't Say Goodbye tabs BlessTheFall - Don't Say Goodbye tabs Goldfinger - Donīt say goodbye
auto scroll beats size up size down change color hide chords drawings
tab show chords e-chords YouTube Clip e-chords hide all tabs e-chords go to top tab

share with facebook