BlessTheFall

I'm Bad News In The Best Way

BlessTheFall

tabs nolevel nolevel

by  UBIRBOMFIM

save to print version add songbook text version e-mail correct tuner
chordsukulelecavacokeyboardtabbassdrumsharmonicaflute Guitar Pro
close

there isn't a video lesson for this song

chords

I'm Bad News In The Best Way

	  		

INTRO 
E|--------------------------------------------------------------------------| 
B|--------------------------------------------------------------------------| 
G|-7---------10-7h10p7p0-7--------------------------------------------------| 
D|---7-7-7h8---------------7-7-7h8-5-5h7p5p0--------------------------------| 
A|--------------------------------------------------------------------------| 
D|--------------------------------------------------------------------------| 
 |                                                                          | 
E|----------------------------------------------------------------------(x2)| 
B|--------------------------------------------------------------------------| 
G|-7---------10-7h10p7p0--5h7-7h9-9h10-10h12--------------------------------| 
D|---7-7-7h8----------------------------------------------------------------| 
A|--------------------------------------------------------------------------| 
D|--------------------------------------------------------------------------| 

E|--------------------------------------------------------------------------| 
B|--------------------------------------------------------------------------| 
G|-7-7-----10-9h10-7-5--7-7-----10-9h10-7-5---------------------------------| 
D|-----7h8------------------7h8---------------------------------------------| 
A|--------------------------------------------------------------------------| 
D|--------------------------------------------------------------------------| 

VERSE 
E|--------------------------------------------------------------------------| 
B|--------------------------------------------------------------------------| 
G|--------------------------------------------------------------------------| 
D|-0-0-0-0-0-0-0-0-0-0-0-0-0-0-0-0-3p0-0-0-0-0-7p0-0-0-0-0-5p0-8p0----------| 
A|-0-0-0-0-0-0-0-0-0-0-0-0-0-0-0-0-----0-0-0-0-----0-0-0-0------------------| 
D|-0-0-0-0-0-0-0-0-0-0-0-0-0-0-0-0-----0-0-0-0-----0-0-0-0------------------| 
 | x x x x x x x x x x x x x x x x     x x x x     x x x x                  | 
E|-------------------------------------------------------------(x2)|--------| 
B|-----------------------------------------------------------------|--------| 
G|-----------------------------------------------------------------|--------| 
D|-8-8-8-8-8-8-8-8-8-8-8-8-8-8-8-8-5-5-5-5-5-5-5-5-5-5-5-5-5-5-5-5-|-5-5-5--| 
A|-8-8-8-8-8-8-8-8-8-8-8-8-8-8-8-8-5-5-5-5-5-5-5-5-5-5-5-5-5-5-5-5-|-5-5-5--| 
D|-8-8-8-8-8-8-8-8-8-8-8-8-8-8-8-8-5-5-5-5-5-5-5-5-5-5-5-5-5-5-5-5-|-5-5-5--| 
   x x x x x x x x x x x x x x x x x x x x x x x x x x x x x x x x   x x x 
   
E|--------------------------------------------------------------------------| 
B|--------------------------------------------------------------------------| 
G|--------------------------------------------------------------------------| 
D|-0000-0-0-0000-000000-0-0-0000-000000-0-0-0000-000000-0-0-000-12\\--------| 
A|-0000-0-0-0000-000000-0-0-0000-000000-0-0-0000-000000-0-0-000-12\\--------| 
D|-0000-0-0-0000-000000-0-0-0000-000000-0-0-0000-000000-0-0-000-12\\--------| 
   xxxx x x xxxx xxxxxx x x xxxx xxxxxx x x xxxx xxxxxx x x xxx   

E|--------------------------------------------------------------------------| 
B|--------------------------------------------------------------------------| 
G|-7-7-----10-9h10-7-5--7-7-----7-5h7-9-5-----------------------------------| 
D|-----7h8------------------7h8---------------------------------------------| 
A|--------------------------------------------------------------------------| 
D|--------------------------------------------------------------------------| 
 |                                                                          | 
E|--------------------------------------------------------------------------| 
B|--------------------------------------------------------------------------| 
G|-7-7-----10-9h10-7-5h7--5h7-7h9-9h10-10h12--------------------------------| 
D|-----7h8------------------------------------------------------------------| 
A|--------------------------------------------------------------------------| 
D|--------------------------------------------------------------------------| 

CHORUS 
E|--------------------------------------------------------------------------| 
B|--------------------------------------------------------------------------| 
G|-7---------10-7h10p7p0-7--------------------------------------------------| 
D|---7-7-7h8---------------7-7-7h8-5-5h7p5p0--------------------------------| 
A|--------------------------------------------------------------------------| 
D|--------------------------------------------------------------------------| 
 |                                                                          | 
E|----------------------------------------------------------------------(x2)| 
B|--------------------------------------------------------------------------| 
G|-7---------10-7h10p7p0--5h7-7h9-9h10-10h12--------------------------------| 
D|---7-7-7h8----------------------------------------------------------------| 
A|--------------------------------------------------------------------------| 
D|--------------------------------------------------------------------------| 

E|--------------------------------------------------------------------------| 
B|--------------------------------------------------------------------------| 
G|-7-7-----10-9h10-7-5--7-7-----10-9h10-7-5--7-7-----10-9h10-7-5------------| 
D|-----7h8------------------7h8------------------7h8------------------------| 
A|--------------------------------------------------------------------------| 
D|--------------------------------------------------------------------------| 
 |                                                                          | 
E|--------------------------------------------------------------------------| 
B|--------------------------------------------------------------------------| 
G|-7-7-----10-9h10-12-5-7-7-----10-9h10-7-5--7-7-----10-9h10-7-5-5/7--------| 
D|-----7h8------------------7h8------------------7h8------------------------| 
A|--------------------------------------------------------------------------| 
D|--------------------------------------------------------------------------| 

BREAKDOWN 
E|-------8-------8------------------------------------------------------(x4)| 
B|---6-------6-----------10----------6--------------------------------------| 
G|-7---7---7---7-----7------7-----5----9------------------------------------| 
D|-----------------8---8------8-3---3----10---------------------------------| 
A|--------------------------------------------------------------------------| 
D|--------------------------------------------------------------------------| 

E|--------------------------------------------------------------------------| 
B|--------------------------------------------------------------------------| 
G|--------------------------------------------------------------------------| 
D|-0-------3-------5--------8-8-8-8-8-8-8-8-8-8-8----0-0-0-0-0-0-0-0-0-0-0--| 
A|-0-------3-------5--------8-8-8-8-8-8-8-8-8-8-8----0-0-0-0-0-0-0-0-0-0-0--| 
D|-0-------3-------5--------8-8-8-8-8-8-8-8-8-8-8----0-0-0-0-0-0-0-0-0-0-0--| 
 |                                                                          | 
E|--------------------------------------------------------------------------| 
B|--------------------------------------------------------------------------| 
G|--------------------------------------------------------------------------| 
D|-3-3-3-3-3-3-3-3-3-3-3----5-5-5-5-5-5-5-5-5-5-5----8-8-8-8-8-8-8-8-8-8-8--| 
A|-3-3-3-3-3-3-3-3-3-3-3----5-5-5-5-5-5-5-5-5-5-5----8-8-8-8-8-8-8-8-8-8-8--| 
D|-3-3-3-3-3-3-3-3-3-3-3----5-5-5-5-5-5-5-5-5-5-5----8-8-8-8-8-8-8-8-8-8-8--| 

E|--------------------------------------------------------------------------| 
B|--------------------------------------------------------------------------| 
G|-7-7-----10-9h10-7-5--7-7-----7-5h7-9-5-----------------------------------| 
D|-----7h8------------------7h8---------------------------------------------| 
A|--------------------------------------------------------------------------| 
D|--------------------------------------------------------------------------| 
 |                                                                          | 
E|--------------------------------------------------------------------------| 
B|--------------------------------------------------------------------------| 
G|-7-7-----10-9h10-7-5--7-7-----7-5h7-7+------------------------------------| 
D|-----7h8------------------7h8---------------------------------------------| 
A|--------------------------------------------------------------------------| 
D|--------------------------------------------------------------------------| 
 |                                                                          | 
E|--------------------------------------------------------------------------| 
B|--------------------------------------------------------------------------| 
G|-7-7-----10-9h10-7-5--7-7-----7-5h7-9-5-----------------------------------| 
D|-----7h8------------------7h8---------------------------------------------| 
A|--------------------------------------------------------------------------| 
D|--------------------------------------------------------------------------| 
 |                                                                          | 
E|--------------------------------------------------------------------------| 
B|--------------------------------------------------------------------------| 
G|-7-7-----10-9h10-7-5h7--5h7-7h9-9h10-10h12--------------------------------| 
D|-----7h8------------------------------------------------------------------| 
A|--------------------------------------------------------------------------| 
D|--------------------------------------------------------------------------| 

STRUM 
E|--------------------------------------------------------------------------| 
B|--------------------------------------------------------------------------| 
G|--------------------------------------------------------------------------| 
D|-8-8-8-8-8-8-8-8-8-8-8-8-8-8-8-8-5-5-5-5-5-5-5-5-5-5-5-5-5-5-5-5----------| 
A|-8-8-8-8-8-8-8-8-8-8-8-8-8-8-8-8-5-5-5-5-5-5-5-5-5-5-5-5-5-5-5-5----------| 
D|-8-8-8-8-8-8-8-8-8-8-8-8-8-8-8-8-5-5-5-5-5-5-5-5-5-5-5-5-5-5-5-5----------| 

OUTRO 
E|--------------------------------------------------------------------------| 
B|--------------------------------------------------------------------------| 
G|-7---------10-7h10p7p0--5h7--7h8-9h10-10h12-------------------------------| 
D|---7-7-7h8----------------------------------------------------------------| 
A|--------------------------------------------------------------------------| 
D|--------------------------------------------------------------------------| 
 |                                                                          | 
E|--------------------------------------------------------------------------| 
B|--------------------------------------------------------------------------| 
G|-7---------10-7h10p7p0-7--------------------------------------------------| 
D|---7-7-7h8---------------7-7-7h8-5-5h7p5p0--------------------------------| 
A|--------------------------------------------------------------------------| 
D|--------------------------------------------------------------------------| 
 |                                                                          | 
E|--------------------------------------------------------------------------| 
B|--------------------------------------------------------------------------| 
G|-7---------10-7h10p7p0--5h7-7h9-9h10-10h12--------------------------------| 
D|---7-7-7h8----------------------------------------------------------------| 
A|--------------------------------------------------------------------------| 
D|--------------------------------------------------------------------------| 

E|--------------------------------------------------------------------------| 
B|--------------------------------------------------------------------------| 
G|-7-7-----10-9h10-7-5--7-7-----10-9h10-7-5--7-7-----10-9h10-7-5------------| 
D|-----7h8------------------7h8------------------7h8------------------------| 
A|--------------------------------------------------------------------------| 
D|--------------------------------------------------------------------------| 
 |                                                                          | 
E|--------------------------------------------------------------------------| 
B|--------------------------------------------------------------------------| 
G|-7-7-----10-9h10-12-5--7-7-----10-9h10-7-5--7-7-----10-9h10-7-5-----------| 
D|-----7h8-------------------7h8------------------7h8-----------------------| 
A|--------------------------------------------------------------------------| 
D|--------------------------------------------------------------------------| 
 |                                                                          | 
E|--------------------------------------------------------------------------| 
B|--------------------------------------------------------------------------| 
G|-7-7-----10-9h10-7-5--7-7-----10-9h10-7-5--7-7-----10-9h10-7-5------------| 
D|-----7h8------------------7h8------------------7h8------------------------| 
A|--------------------------------------------------------------------------| 
D|--------------------------------------------------------------------------| 
 |                                                                          | 
E|--------------------------------------------------------------------------| 
B|--------------------------------------------------------------------------| 
G|-7-7-----10-9h10-12-5--7-7-----10-9h10-7-5-7-7-----10-9h10-7-5-5/7--------| 
D|-----7h8-------------------7h8-----------------7h8------------------------| 
A|--------------------------------------------------------------------------| 
D|--------------------------------------------------------------------------| 

 
		  

See also:

tabs Chris Brown - Say goodbye (intro) tabs Dallas Green - Coming home (intro) tabs Ne-yo - So sick tabs Lady Gaga - Electric Chapel (intro) tabs All American Rejects - It ends tonight tabs Plain White T's - Hey There Delilah (ver. 2)
e-chords

Other versions:

tabs BlessTheFall - I'm Bad News In The Best Way
auto scroll beats size up size down change color hide chords drawings
tab show chords e-chords YouTube Clip e-chords hide all tabs e-chords go to top tab

share with facebook