BlessTheFall

You Wear A Crown But You're No King

BlessTheFall

tabs Expert expert

by  MARCNAGEL

save to print version add songbook text version e-mail correct tuner
chordsukulelecavacokeyboardtabbassdrumsharmonicaflute Guitar Pro
close

there isn't a video lesson for this song

chords

You Wear A Crown But You're No King

	  		

GUITAR 1 

D |-------|-------|-------|-------|-----------13----------13---| 
A |-------|-------|-------|-------|--15----15----15----17------| 
F |-------|-------|-------|-------|-----14----------14---------| 
C |--0L---|--0L---|--0----|-------|----------------------------| 
G |--0L---|--0L---|--0----|-------|----------------------------| 
C |--0L---|--0L---|--0----|-------|----------------------------| 


-----13----13----------13---|-----------13----------13---| 
--17----17----17----17------|--15----15----15----17------| 
-----------------14---------|-----14----------14---------| 
----------------------------|----------------------------| 
----------------------------|----------------------------| 
----------------------------|----------------------------| 


-----13----13----------13---|-----------13---------------| 
--17----17----17----17------|--11----11----11----11------| 
-----------------14---------|-----14----------14----14---| 
----------------------------|----------------------------| 
----------------------------|----------------------------| 
----------------------------|----------------------------| 


-----12---------------------|-----------13---------------| 
--11----11----11----11------|--11----11----11----11------| 
-----------14----14----14---|-----14----------14----14---| 
----------------------------|----------------------------| 
----------------------------|----------------------------| 
----------------------------|----------------------------| 


-----12-------12-13-12------|-----------13----------13---| 
--11----11-------------13---|--15----15----15----17------| 
-----------14---------------|-----14----------14---------| 
----------------------------|----------------------------| 
----------------------------|----------------------------| 
----------------------------|----------------------------| 


-----13----13----------13---|--------12------------------| 
--17----17----17----17------|-----------11-10-11---------| 
-----------------14---------|--14-15-------------14-15---| 
----------------------------|----------------------------| 
----------------------------|----------------------------| 
----------------------------|----------------------------| 


--12------------------------| 
-----11----11----11----11---| 
--------14----14----14------| 
----------------------------| 
----------------------------| 
----------------------------| 


----------------------------------------------------| 
----------------------------------------------------| 
----------------------------------------------------| 
--------------------------0--------0--------0-------| 
--------5b----------------0--------0--------0-------| 
--0M-0M-------------0M-0M-0-----0M-0-----0M-0-------| 


----------------------------------------------------| 
----------------------------------------------------| 
----------------------------------------------------| 
----------------------------------------------------| 
--------5b-------------------------6----------------| 
--0M-0M-------------0M-0M-1-----0M-------1M-1-------| 


----------------------------------------------------| 
----------------------------------------------------| 
----------------------------------------------------| 
--------0-----0--------------------0--------0-------| 
--------0-----0--------------------0--------0-------| 
--0M-0M-0-----0-----0M-0M-3-----0M-0-----0M-0-------| 


----------------------------------------------------| 
----------------------------------------------------| 
----------------------------------------------------| 
--------0-----0-----------5--5--5--5--4--4--4--4----| 
--------0-----0-----------5--5--5--5--4--4--4--4----| 
--0M-0M-0-----0-----0M-0M-5--5--5--5--4--4--4--4----| 


----------------------------------------------------| 
----------------------------------------------------| 
----------------------------------------------------| 
--------------------------0--------0--------0-------| 
--------5b----------------0--------0--------0-------| 
--0M-0M-------------0M-0M-0-----0M-0-----0M-0-------| 


----------------------------------------------------| 
----------------------------------------------------| 
----------------------------------------------------| 
----------------------------------------------------| 
--------5b-------------------------6----------------| 
--0M-0M-------------0M-0M-1-----0M-------1M-1-------| 


----------------------------------------------------| 
----------------------------------------------------| 
----------------------------------------------------| 
--------0-----0--------------------0--------0-------| 
--------0-----0--------------------0--------0-------| 
--0M-0M-0-----0-----0M-0M-3-----0M-0-----0M-0-------| 


----------------------------------------------------| 
----------------------------------------------------| 
----------------------------------------------------| 
--------0-----0-----------5--5--5--5--4--4--4--4----| 
--------0-----0-----------5--5--5--5--4--4--4--4----| 
--0M-0M-0-----0-----0M-0M-5--5--5--5--4--4--4--4----| 


----------------------------------------------------| 
----------------------------------------------------| 
----------------------------------------------------| 
--7h-8h-7h-0--------11h12h11h0--7h-8h-7h-0----------| 
----------------------------------------------------| 
--------------0M-0M-------------------------0M-0M---| 


----------------------------------------------------| 
----------------------------------------------------| 
----------------------------------------------------| 
--14h11-------8h-11-------11h12h11-8h-7h-8h-7h-0----| 
----------------------------------------------------| 
--------0M-0M-------0M-0M---------------------------| 


----------------------------------------------------| 
----------------------------------------------------| 
----------------------------------------------------| 
--7h-8h-7h-0--------11h12h11h0--7h-8h-7h-0----------| 
----------------------------------------------------| 
--------------0M-0M-------------------------0M-0M---| 


----------------------------------------------------| 
----------------------------------------------------| 
----------------------------------------------------| 
--14h11-------8h-11-------14h15h14-------------0----| 
-----------------------------------17h16h17h16------| 
--------0M-0M-------0M-0M---------------------------| 


----------------------------------------------------| 
----------------------------------------------------| 
----------------------------------------------------| 
--7h-8h-7h-0--------11h12h11h0--7h-8h-7h-0----------| 
----------------------------------------------------| 
--------------0M-0M-------------------------0M-0M---| 


----------------------------------------------------| 
----------------------------------------------------| 
----------------------------------------------------| 
--14h11-------8h-11-------11h12h11-8h-7h-8h-7h-0----| 
----------------------------------------------------| 
--------0M-0M-------0M-0M---------------------------| 


----------------------------------------------------| 
----------------------------------------------------| 
----------------------------------------------------| 
--7h-8h-7h-0--------11h12h11h0--7h-8h-7h-0----------| 
----------------------------------------------------| 
--------------0M-0M-------------------------0M-0M---| 


----------------------------------------------------|-------|-------|-------| 
----------------------------------------------------|-------|-------|-------| 
----------------------------------------------------|-------|-------|-------| 
--14h11-------8h-11-------14h15h14------------------|--8----|--10---|--0----| 
-----------------------------------17h16------------|--8----|--10---|--0----| 
--------0M-0M-------0M-0M---------------------------|--8----|--10---|--0----| 


-------|-------|-------|-------|-------|-------|-------| 
-------|-------|-------|-------|-------|-------|-------| 
-------|-------|-------|-------|-------|-------|-------| 
--0----|--8----|--10---|--7----|--0----|-------|-------| 
--0----|--8----|--10---|--7----|--0----|-------|-------| 
--0----|--8----|--10---|--7----|--0----|-------|-------| 


----------------------------|----------------------------| 
----------------------------|----------------------------| 
--10-10-10-10-10-10-10-10---|--10-10-10-10-9--9--9--9----| 
--x--x--x--x--x--x--x--x----|--x--x--x--x--x--x--x--x----| 
--8--8--8--8--8--8--8--8----|--8--8--8--8--7--7--7--7----| 
----------------------------|----------------------------| 


----------------------------|----------------------------| 
----------------------------|----------------------------| 
--10-10-10-10-10-10-10-10---|--10-10-10-10-12-12-12-12---| 
--x--x--x--x--x--x--x--x----|--x--x--x--x--x--x--x--x----| 
--8--8--8--8--8--8--8--8----|--8--8--8--8--10-10-10-10---| 
----------------------------|----------------------------| 


----------------------------|----------------------------| 
----------------------------|----------------------------| 
--15-15-15-15-14-14-14-14---|--12-12-12-12-14-14-14-14---| 
--x--x--x--x--x--x--x--x----|--x--x--x--x--x--x--x--x----| 
--13-13-13-13-12-12-12-12---|--10-10-10-10-12-12-12-12---| 
----------------------------|----------------------------| 


----------------------------|-------| 
----------------------------|-------| 
--10-10-10-10-10-10-10-10---|-------| 
--x--x--x--x--x--x--x--x----|-------| 
--8--8--8--8--8--8--8--8----|-------| 
----------------------------|-------| 


----------------------------------------------------| 
----------------------------------------------------| 
----------------------------------------------------| 
--1--------0--------1-----4-----------0M-0M-0M-0L---| 
--1--------0--------1-----4-----------0M-0M-0M-0L---| 
--1--------0--------1-----4-----------0M-0M-0M-0L---| 


----------------------------------------------------| 
----------------------------------------------------| 
----------------------------------------------------| 
--0-----0-------------------------------------------| 
--0-----0-------------------------------------------| 
--0-----0-----------------7h-8h-7h-0--4h-5h-4h-0----| 


----------------------------------------------------| 
----------------------------------------------------| 
----------------------------------------------------| 
--1--------0--------1-----4-----0M----1-----4-------| 
--1--------0--------1-----4-----0M----1-----4-------| 
--1--------0--------1-----4-----0M----1-----4-------| 


----------------------------| 
----------------------------| 
----------------------------| 
--0M-8--7--0M-4--0M-4--5----| 
--0M-8--7--0M-4--0M-4--5----| 
--0M-8--7--0M-4--0M-4--5----| 


----------------------------------------------------| 
----------------------------------------------------| 
----------------------------------------------------| 
--1--------0--------1-----4-----------0M-0M-0M-0L---| 
--1--------0--------1-----4-----------0M-0M-0M-0L---| 
--1--------0--------1-----4-----------0M-0M-0M-0L---| 


----------------------------------------------------| 
----------------------------------------------------| 
----------------------------------------------------| 
--0-----0-------------------------------------------| 
--0-----0-------------------------------------------| 
--0-----0-----------------7h-8h-7h-0--4h-5h-4h-0----| 


----------------------------------------------------| 
----------------------------------------------------| 
----------------------------------------------------| 
--1--------0--------1-----4-----0M----1-----4-------| 
--1--------0--------1-----4-----0M----1-----4-------| 
--1--------0--------1-----4-----0M----1-----4-------| 


----------------------------| 
----------------------------| 
----------------------------| 
--0M-8--7--0M-4--0M-4--5----| 
--0M-8--7--0M-4--0M-4--5----| 
--0M-8--7--0M-4--0M-4--5----| 


----------------------------------------------------| 
----------------------------------------------------| 
----------------------------------------------------| 
--7h-8h-7h-0--------11h12h11h0--7h-8h-7h-0----------| 
----------------------------------------------------| 
--------------0M-0M-------------------------0M-0M---| 


----------------------------------------------------| 
----------------------------------------------------| 
----------------------------------------------------| 
--14h11-------8h-11-------11h12h11-8h-7h-8h-7h-0----| 
----------------------------------------------------| 
--------0M-0M-------0M-0M---------------------------| 


----------------------------------------------------| 
----------------------------------------------------| 
----------------------------------------------------| 
--7h-8h-7h-0--------11h12h11h0--7h-8h-7h-0----------| 
----------------------------------------------------| 
--------------0M-0M-------------------------0M-0M---| 


----------------------------------------------------| 
----------------------------------------------------| 
----------------------------------------------------| 
--14h11-------8h-11-------14h15h14-------------0----| 
-----------------------------------17h16h17h16------| 
--------0M-0M-------0M-0M---------------------------| 


----------------------------------------------------| 
----------------------------------------------------| 
----------------------------------------------------| 
--7h-8h-7h-0--------11h12h11h0--7h-8h-7h-0----------| 
----------------------------------------------------| 
--------------0M-0M-------------------------0M-0M---| 


----------------------------------------------------| 
----------------------------------------------------| 
----------------------------------------------------| 
--14h11-------8h-11-------11h12h11-8h-7h-8h-7h-0----| 
----------------------------------------------------| 
--------0M-0M-------0M-0M---------------------------| 


----------------------------------------------------| 
----------------------------------------------------| 
----------------------------------------------------| 
--7h-8h-7h-0--------11h12h11h0--7h-8h-7h-0----------| 
----------------------------------------------------| 
--------------0M-0M-------------------------0M-0M---| 


----------------------------------------------------|-------|-------|-------| 
----------------------------------------------------|-------|-------|-------| 
----------------------------------------------------|-------|-------|-------| 
--14h11-------8h-11-------14h15h14------------------|--8----|--10---|--0----| 
-----------------------------------17h16------------|--8----|--10---|--0----| 
--------0M-0M-------0M-0M---------------------------|--8----|--10---|--0----| 


-------|----------------------------|----------------------------| 
-------|----------------------------|----------------------------| 
-------|----------------------------|----------------------------| 
--0----|--8M-8M-8M-8M-8M-8M-8M-8M---|--10M10M10M10M10M10M10M10M--| 
--0----|--8M-8M-8M-8M-8M-8M-8M-8M---|--10M10M10M10M10M10M10M10M--| 
--0----|--8M-8M-8M-8M-8M-8M-8M-8M---|--10M10M10M10M10M10M10M10M--| 


----------------------------|----------------------------|-------|-------| 
----------------------------|----------------------------|-------|-------| 
----------------------------|----------------------------|-------|-------| 
--7M-7M-7M-7M-7M-7M-7M-7M---|--0M-0M-0M-0M-0M-0M-0M-0M---|-------|-------| 
--7M-7M-7M-7M-7M-7M-7M-7M---|--0M-0M-0M-0M-0M-0M-0M-0M---|-------|-------| 
--7M-7M-7M-7M-7M-7M-7M-7M---|--0M-0M-0M-0M-0M-0M-0M-0M---|-------|-------| 


----------------------------|----------------------------| 
----------------------------|----------------------------| 
--10-10-10-10-10-10-10-10---|--10-10-10-10-9--9--9--9----| 
--x--x--x--x--x--x--x--x----|--x--x--x--x--x--x--x--x----| 
--8--8--8--8--8--8--8--8----|--8--8--8--8--7--7--7--7----| 
----------------------------|----------------------------| 


----------------------------|----------------------------| 
----------------------------|----------------------------| 
--10-10-10-10-10-10-10-10---|--10-10-10-10-12-12-12-12---| 
--x--x--x--x--x--x--x--x----|--x--x--x--x--x--x--x--x----| 
--8--8--8--8--8--8--8--8----|--8--8--8--8--10-10-10-10---| 
----------------------------|----------------------------| 


----------------------------|----------------------------| 
----------------------------|----------------------------| 
--15-15-15-15-14-14-14-14---|--12-12-12-12-14-14-14-14---| 
--x--x--x--x--x--x--x--x----|--x--x--x--x--x--x--x--x----| 
--13-13-13-13-12-12-12-12---|--10-10-10-10-12-12-12-12---| 
----------------------------|----------------------------| 


----------------------------|----------------------------| 
----------------------------|----------------------------| 
--10-10-10-10-10-10-10-10---|--14-14-14-14-14-14-14-14---| 
--x--x--x--x--x--x--x--x----|--x--x--x--x--x--x--x--x----| 
--8--8--8--8--8--8--8--8----|--12-12-12-12-12-12-12-12---| 
----------------------------|----------------------------| 


----------------------------|----------------------------| 
----------------------------|----------------------------| 
--10-10-10-10-10-10-10-10---|--10-10-10-10-9--9--9--9----| 
--x--x--x--x--x--x--x--x----|--x--x--x--x--x--x--x--x----| 
--8--8--8--8--8--8--8--8----|--8--8--8--8--7--7--7--7----| 
----------------------------|----------------------------| 


----------------------------|----------------------------| 
----------------------------|----------------------------| 
--10-10-10-10-10-10-10-10---|--10-10-10-10-12-12-12-12---| 
--x--x--x--x--x--x--x--x----|--x--x--x--x--x--x--x--x----| 
--8--8--8--8--8--8--8--8----|--8--8--8--8--10-10-10-10---| 
----------------------------|----------------------------| 


----------------------------|----------------------------| 
----------------------------|----------------------------| 
--15-15-15-15-14-14-14-14---|--12-12-12-12-14-14-14-14---| 
--x--x--x--x--x--x--x--x----|--x--x--x--x--x--x--x--x----| 
--13-13-13-13-12-12-12-12---|--10-10-10-10-12-12-12-12---| 
----------------------------|----------------------------| 


----------------------------|-------|-----------13----------13---| 
----------------------------|-------|--15----15----15----17------| 
--10-10-10-10-10-10-10-10---|-------|-----14----------14---------| 
--x--x--x--x--x--x--x--x----|-------|----------------------------| 
--8--8--8--8--8--8--8--8----|-------|----------------------------| 
----------------------------|-------|----------------------------| 


-----13----13----------13---|-----------13----------13---| 
--17----17----17----17------|--15----15----15----17------| 
-----------------14---------|-----14----------14---------| 
----------------------------|----------------------------| 
----------------------------|----------------------------| 
----------------------------|----------------------------| 


-----13----13----------13---|-----------13----------13---| 
--17----17----17----17------|--15----15----15----17------| 
-----------------14---------|-----14----------14---------| 
----------------------------|----------------------------| 
----------------------------|----------------------------| 
----------------------------|----------------------------| 


-----13----13----------13---|-----------13----------13---| 
--17----17----17----17------|--15----15----15----17------| 
-----------------14---------|-----14----------14---------| 
----------------------------|----------------------------| 
----------------------------|----------------------------| 
----------------------------|----------------------------| 


-----13----13----------13---|----| 
--17----17----17----17------|----| 
-----------------14---------|----| 
----------------------------|----| 
----------------------------|----| 
----------------------------|----| 


----------------------------------------------------| 
----------------------------------------------------| 
----------------------------------------------------| 
--0M-0M-0M-0M----0M----0M-0M-0M-0M----0M-0M-0M-0M---| 
--0M-0M-0M-0M----0M----0M-0M-0M-0M----0M-0M-0M-0M---| 
--0M-0M-0M-0M----0M----0M-0M-0M-0M----0M-0M-0M-0M---| 


----------------------------------------------------| 
----------------------------------------------------| 
----------------------------------------------------| 
-----0M----0M-0M-0M-0M-0M-0M-0M-0M----0M-0M-0M------| 
-----0M----0M-0M-0M-0M-0M-0M-0M-0M----0M-0M-0M------| 
-----0M----0M-0M-0M-0M-0M-0M-0M-0M----0M-0M-0M------| 


----------------------------------------------------| 
----------------------------------------------------| 
----------------------------------------------------| 
--0M-0M-0M-0M----0M----0M-0M-0M-0M----0M-0M-0M-0M---| 
--0M-0M-0M-0M----0M----0M-0M-0M-0M----0M-0M-0M-0M---| 
--0M-0M-0M-0M----0M----0M-0M-0M-0M----0M-0M-0M-0M---| 


----------------------------------------------------| 
----------------------------------------------------| 
----------------------------------------------------| 
-----0M----0M-0M-0M-0M-0M-0M-0M-0M----0M-0M-0M-0M---| 
-----0M----0M-0M-0M-0M-0M-0M-0M-0M----0M-0M-0M-0M---| 
-----0M----0M-0M-0M-0M-0M-0M-0M-0M----0M-0M-0M-0M---| 


----------------------------------------------------| 
----------------------------------------------------| 
----------------------------------------------------| 
--0M----------------0M----0M-0M-------0M-0M-0M-0M---| 
--0M----------------0M----0M-0M-------0M-0M-0M-0M---| 
--0M----------------0M----0M-0M-------0M-0M-0M-0M---| 


----------------------------------------------------| 
----------------------------------------------------| 
----------------------------------------------------| 
-----0M----0M-0M-0M-0M-0M-0M-0M-0M----0M-0M-0M-0M---| 
-----0M----0M-0M-0M-0M-0M-0M-0M-0M----0M-0M-0M-0M---| 
-----0M----0M-0M-0M-0M-0M-0M-0M-0M----0M-0M-0M-0M---| 


----------------------------------------------------| 
----------------------------------------------------| 
----------------------------------------------------| 
--0M----------------0M----0M-0M-------0M-0M-0M-0M---| 
--0M----------------0M----0M-0M-------0M-0M-0M-0M---| 
--0M----------------0M----0M-0M-------0M-0M-0M-0M---| 


----------------------------------------------------| 
----------------------------------------------------| 
----------------------------------------------------| 
-----0M----0M-0M-0M-0M-0M-0M-0M-0M----0M-0M-0M------| 
-----0M----0M-0M-0M-0M-0M-0M-0M-0M----0M-0M-0M------| 
-----0M----0M-0M-0M-0M-0M-0M-0M-0M----0M-0M-0M------| 


-----------13----------13---|-----13----13----------13---| 
--15----15----15----17------|--17----17----17----17------| 
-----14----------14---------|-----------------14---------| 
----------------------------|----------------------------| 
----------------------------|----------------------------| 
----------------------------|----------------------------| 


-----------13----------13---|-----13----13----------13---| 
--15----15----15----17------|--17----17----17----17------| 
-----14----------14---------|-----------------14---------| 
----------------------------|----------------------------| 
----------------------------|----------------------------| 
----------------------------|----------------------------| 


-----------13---------------|-----12---------------------| 
--11----11----11----11------|--11----11----11----11------| 
-----14----------14----14---|-----------14----14----14---| 
----------------------------|----------------------------| 
----------------------------|----------------------------| 
----------------------------|----------------------------| 


-----------13---------------|-----12-------12-13-12------|-------|-------| 
--11----11----11----11------|--11----11-------------13---|--15L--|--15L--| 
-----14----------14----14---|-----------14---------------|-------|-------| 
----------------------------|----------------------------|-------|-------| 
----------------------------|----------------------------|-------|-------| 
----------------------------|----------------------------|-------|-------| 


-------|-------|| 
--15L--|--15---|| 
-------|-------|| 
-------|-------|| 
-------|-------|| 
-------|-------|| 

GUITAR 2 

D |-------|-------|-------|-------| 
A |-------|-------|-------|-------| 
F |-------|-------|-------|-------| 
C |--0L---|--0L---|--0----|-------| 
G |--0L---|--0L---|--0----|-------| 
C |--0L---|--0L---|--0----|-------| 


----------------------------------------------------| 
----------------------------------------------------| 
----------------------------------------------------| 
--0M-0M-0M-0M----0M----0M-0M-0M-0M----0M-0M-0M-0M---| 
--0M-0M-0M-0M----0M----0M-0M-0M-0M----0M-0M-0M-0M---| 
--0M-0M-0M-0M----0M----0M-0M-0M-0M----0M-0M-0M-0M---| 


----------------------------------------------------| 
----------------------------------------------------| 
----------------------------------------------------| 
-----0M----0M-0M-0M-0M-0M-0M-0M-0M----0M-0M-0M------| 
-----0M----0M-0M-0M-0M-0M-0M-0M-0M----0M-0M-0M------| 
-----0M----0M-0M-0M-0M-0M-0M-0M-0M----0M-0M-0M------| 


----------------------------------------------------| 
----------------------------------------------------| 
----------------------------------------------------| 
--0M-0M-0M-0M----0M----0M-0M-0M-0M----0M-0M-0M-0M---| 
--0M-0M-0M-0M----0M----0M-0M-0M-0M----0M-0M-0M-0M---| 
--0M-0M-0M-0M----0M----0M-0M-0M-0M----0M-0M-0M-0M---| 


----------------------------------------------------| 
----------------------------------------------------| 
----------------------------------------------------| 
-----0M----0M-0M-0M-0M-0M-0M-0M-0M----0M-0M-0M------| 
-----0M----0M-0M-0M-0M-0M-0M-0M-0M----0M-0M-0M------| 
-----0M----0M-0M-0M-0M-0M-0M-0M-0M----0M-0M-0M------| 


----------------------------------------------------| 
----------------------------------------------------| 
----------------------------------------------------| 
--0M-0M-0M-0M----0M----0M-0M-0M-0M----0M-0M-0M-0M---| 
--0M-0M-0M-0M----0M----0M-0M-0M-0M----0M-0M-0M-0M---| 
--0M-0M-0M-0M----0M----0M-0M-0M-0M----0M-0M-0M-0M---| 


----------------------------------------------------| 
----------------------------------------------------| 
----------------------------------------------------| 
-----0M----0M-0M-0M-0M-0M-0M-0M-0M----0M-0M-0M------| 
-----0M----0M-0M-0M-0M-0M-0M-0M-0M----0M-0M-0M------| 
-----0M----0M-0M-0M-0M-0M-0M-0M-0M----0M-0M-0M------| 


----------------------------------------------------| 
----------------------------------------------------| 
----------------------------------------------------| 
--0M-0M-0M-0M----0M----0M-0M-0M-0M----0M-0M-0M-0M---| 
--0M-0M-0M-0M----0M----0M-0M-0M-0M----0M-0M-0M-0M---| 
--0M-0M-0M-0M----0M----0M-0M-0M-0M----0M-0M-0M-0M---| 


----------------------------------------------------| 
----------------------------------------------------| 
----------------------------------------------------| 
-----0M----0M-0M-0M-0M-0M-0M-0M-0M----0M-0M-0M------| 
-----0M----0M-0M-0M-0M-0M-0M-0M-0M----0M-0M-0M------| 
-----0M----0M-0M-0M-0M-0M-0M-0M-0M----0M-0M-0M------| 


----------------------------------------------------| 
----------------------------------------------------| 
----------------------------------------------------| 
--0M-0M-0M-0M----0M----0M-0M-0M-0M----0M-0M-0M-0M---| 
--0M-0M-0M-0M----0M----0M-0M-0M-0M----0M-0M-0M-0M---| 
--0M-0M-0M-0M----0M----0M-0M-0M-0M----0M-0M-0M-0M---| 


----------------------------------------------------| 
----------------------------------------------------| 
----------------------------------------------------| 
-----0M----0M-0M-0M-0M-0M-0M-0M-0M----0M-0M-0M------| 
-----0M----0M-0M-0M-0M-0M-0M-0M-0M----0M-0M-0M------| 
-----0M----0M-0M-0M-0M-0M-0M-0M-0M----0M-0M-0M------| 


----------------------------------------------------| 
----------------------------------------------------| 
----------------------------------------------------| 
--0M-0M-0M-0M----0M----0M-0M-0M-0M----0M-0M-0M-0M---| 
--0M-0M-0M-0M----0M----0M-0M-0M-0M----0M-0M-0M-0M---| 
--0M-0M-0M-0M----0M----0M-0M-0M-0M----0M-0M-0M-0M---| 


----------------------------------------------------| 
----------------------------------------------------| 
----------------------------------------------------| 
-----0M----0M-0M-0M-0M-0M-0M-0M-0M----0M-0M-0M------| 
-----0M----0M-0M-0M-0M-0M-0M-0M-0M----0M-0M-0M------| 
-----0M----0M-0M-0M-0M-0M-0M-0M-0M----0M-0M-0M------| 


----------------------------------------------------| 
----------------------------------------------------| 
----------------------------------------------------| 
--------------------------0--------0--------0-------| 
--------5b----------------0--------0--------0-------| 
--0M-0M-------------0M-0M-0-----0M-0-----0M-0-------| 


----------------------------------------------------| 
----------------------------------------------------| 
----------------------------------------------------| 
----------------------------------------------------| 
--------5b-------------------------6----------------| 
--0M-0M-------------0M-0M-1-----0M-------1M-1-------| 


----------------------------------------------------| 
----------------------------------------------------| 
----------------------------------------------------| 
--------0-----0--------------------0--------0-------| 
--------0-----0--------------------0--------0-------| 
--0M-0M-0-----0-----0M-0M-3-----0M-0-----0M-0-------| 


----------------------------------------------------| 
----------------------------------------------------| 
----------------------------------------------------| 
--------0-----0-----------5--5--5--5--4--4--4--4----| 
--------0-----0-----------5--5--5--5--4--4--4--4----| 
--0M-0M-0-----0-----0M-0M-5--5--5--5--4--4--4--4----| 


----------------------------------------------------| 
----------------------------------------------------| 
----------------------------------------------------| 
--------------------------0--------0--------0-------| 
--------5b----------------0--------0--------0-------| 
--0M-0M-------------0M-0M-0-----0M-0-----0M-0-------| 


----------------------------------------------------| 
----------------------------------------------------| 
----------------------------------------------------| 
----------------------------------------------------| 
--------5b-------------------------6----------------| 
--0M-0M-------------0M-0M-1-----0M-------1M-1-------| 


----------------------------------------------------| 
----------------------------------------------------| 
----------------------------------------------------| 
--------0-----0--------------------0--------0-------| 
--------0-----0--------------------0--------0-------| 
--0M-0M-0-----0-----0M-0M-3-----0M-0-----0M-0-------| 


----------------------------------------------------| 
----------------------------------------------------| 
----------------------------------------------------| 
--------0-----0-----------5--5--5--5--4--4--4--4----| 
--------0-----0-----------5--5--5--5--4--4--4--4----| 
--0M-0M-0-----0-----0M-0M-5--5--5--5--4--4--4--4----| 


----------------------------------------------------| 
----------------------------------------------------| 
----------------------------------------------------| 
--0M-0M----0M----0M-0M-0M-0M-0M-0M----0M-0M----0L---| 
--0M-0M----0M----0M-0M-0M-0M-0M-0M----0M-0M----0L---| 
--0M-0M----0M----0M-0M-0M-0M-0M-0M----0M-0M----0L---| 


----------------------------------------------------| 
----------------------------------------------------| 
----------------------------------------------------| 
--0M-0M-0M-0M-0M-0M-0M-0M-0M-0M-0M-0M-0M-0M-0M------| 
--0M-0M-0M-0M-0M-0M-0M-0M-0M-0M-0M-0M-0M-0M-0M------| 
--0M-0M-0M-0M-0M-0M-0M-0M-0M-0M-0M-0M-0M-0M-0M------| 


----------------------------------------------------| 
----------------------------------------------------| 
----------------------------------------------------| 
--0M-0M----0M----0M-0M-0M-0.----0.----0M-0M----0L---| 
--0M-0M----0M----0M-0M-0M-0.----0.----0M-0M----0L---| 
--0M-0M----0M----0M-0M-0M-0.----0.----0M-0M----0L---| 


----------------------------------------------------| 
----------------------------------------------------| 
----------------------------------------------------| 
--0M-0M-0M-0M-0M-0M-0M-0M-0M-0M-0M-0M-0.------------| 
--0M-0M-0M-0M-0M-0M-0M-0M-0M-0M-0M-0M-0.------------| 
--0M-0M-0M-0M-0M-0M-0M-0M-0M-0M-0M-0M-0.------------| 


----------------------------------------------------| 
----------------------------------------------------| 
----------------------------------------------------| 
--0M-0M----0M----0M-0M-0M-0M-0M-0M----0M-0M----0L---| 
--0M-0M----0M----0M-0M-0M-0M-0M-0M----0M-0M----0L---| 
--0M-0M----0M----0M-0M-0M-0M-0M-0M----0M-0M----0L---| 


----------------------------------------------------| 
----------------------------------------------------| 
----------------------------------------------------| 
--0M-0M-0M-0M-0M-0M-0M-0M-0M-0M-0M-0M-0M-0M-0M------| 
--0M-0M-0M-0M-0M-0M-0M-0M-0M-0M-0M-0M-0M-0M-0M------| 
--0M-0M-0M-0M-0M-0M-0M-0M-0M-0M-0M-0M-0M-0M-0M------| 


----------------------------------------------------| 
----------------------------------------------------| 
----------------------------------------------------| 
--0M-0M----0M----0M-0M-0M-0.----0.----0M-0M----0L---| 
--0M-0M----0M----0M-0M-0M-0.----0.----0M-0M----0L---| 
--0M-0M----0M----0M-0M-0M-0.----0.----0M-0M----0L---| 


----------------------------------------------------|-------|-------|-------| 
----------------------------------------------------|-------|-------|-------| 
----------------------------------------------------|-------|-------|-------| 
--0M-0M-0M-0M-0M-0M-0M-0M-0M-0M-0M-0M-0.------------|--8----|--10---|--0----| 
--0M-0M-0M-0M-0M-0M-0M-0M-0M-0M-0M-0M-0.------------|--8----|--10---|--0----| 
--0M-0M-0M-0M-0M-0M-0M-0M-0M-0M-0M-0M-0.------------|--8----|--10---|--0----| 


-------|-------|-------|-------|-------|-------|-------| 
-------|-------|-------|-------|-------|-------|-------| 
-------|-------|-------|-------|-------|-------|-------| 
--0----|--8----|--10---|--7----|--0----|-------|-------| 
--0----|--8----|--10---|--7----|--0----|-------|-------| 
--0----|--8----|--10---|--7----|--0----|-------|-------| 


----------------------------|----------------------------| 
----------------------------|----------------------------| 
--7--7--7--7--7--7--7--7----|--7--7--7--7----------------| 
--7--7--7--7--7--7--7--7----|--7--7--7--7--7--7--7--7----| 
--5--5--5--5--5--5--5--5----|--5--5--5--5--7--7--7--7----| 
----------------------------|--------------7--7--7--7----| 


----------------------------|----------------------------| 
----------------------------|----------------------------| 
----------------------------|----------------------------| 
--8--8--8--8--8--8--8--8----|--8--8--8--8--7--7--7--7----| 
--8--8--8--8--8--8--8--8----|--8--8--8--8--7--7--7--7----| 
--8--8--8--8--8--8--8--8----|--8--8--8--8--7--7--7--7----| 


----------------------------|----------------------------| 
----------------------------|----------------------------| 
----------------------------|----------------------------| 
--5--5--5--5--5--5--5--5----|--5--5--5--5--7--7--7--7----| 
--5--5--5--5--5--5--5--5----|--5--5--5--5--7--7--7--7----| 
--5--5--5--5--5--5--5--5----|--5--5--5--5--7--7--7--7----| 


----------------------------|-------| 
----------------------------|-------| 
----------------------------|-------| 
--3--3--3--3--3--3--3--3----|-------| 
--3--3--3--3--3--3--3--3----|-------| 
--3--3--3--3--3--3--3--3----|-------| 


----------------------------------------------------| 
----------------------------------------------------| 
----------------------------------------------------| 
--1--------0--------1-----4-----------0M-0M-0M-0L---| 
--1--------0--------1-----4-----------0M-0M-0M-0L---| 
--1--------0--------1-----4-----------0M-0M-0M-0L---| 


----------------------------------------------------| 
----------------------------------------------------| 
----------------------------------------------------| 
--0-----0-------------------------------------------| 
--0-----0-------------------------------------------| 
--0-----0-----------------7h-8h-7h-0--4h-5h-4h-0----| 


----------------------------------------------------| 
----------------------------------------------------| 
----------------------------------------------------| 
--1--------0--------1-----4-----0M----1-----4-------| 
--1--------0--------1-----4-----0M----1-----4-------| 
--1--------0--------1-----4-----0M----1-----4-------| 


----------------------------| 
----------------------------| 
----------------------------| 
--0M-8--7--0M-4--0M-4--5----| 
--0M-8--7--0M-4--0M-4--5----| 
--0M-8--7--0M-4--0M-4--5----| 


----------------------------------------------------| 
----------------------------------------------------| 
----------------------------------------------------| 
--1--------0--------1-----4-----------0M-0M-0M-0L---| 
--1--------0--------1-----4-----------0M-0M-0M-0L---| 
--1--------0--------1-----4-----------0M-0M-0M-0L---| 


----------------------------------------------------| 
----------------------------------------------------| 
----------------------------------------------------| 
--0-----0-------------------------------------------| 
--0-----0-------------------------------------------| 
--0-----0-----------------7h-8h-7h-0--4h-5h-4h-0----| 


----------------------------------------------------| 
----------------------------------------------------| 
----------------------------------------------------| 
--1--------0--------1-----4-----0M----1-----4-------| 
--1--------0--------1-----4-----0M----1-----4-------| 
--1--------0--------1-----4-----0M----1-----4-------| 


----------------------------| 
----------------------------| 
----------------------------| 
--0M-8--7--0M-4--0M-4--5----| 
--0M-8--7--0M-4--0M-4--5----| 
--0M-8--7--0M-4--0M-4--5----| 


----------------------------------------------------| 
----------------------------------------------------| 
----------------------------------------------------| 
--0M-0M----0M----0M-0M-0M-0M-0M-0M----0M-0M----0L---| 
--0M-0M----0M----0M-0M-0M-0M-0M-0M----0M-0M----0L---| 
--0M-0M----0M----0M-0M-0M-0M-0M-0M----0M-0M----0L---| 


----------------------------------------------------| 
----------------------------------------------------| 
----------------------------------------------------| 
--0M-0M-0M-0M-0M-0M-0M-0M-0M-0M-0M-0M-0M-0M-0M------| 
--0M-0M-0M-0M-0M-0M-0M-0M-0M-0M-0M-0M-0M-0M-0M------| 
--0M-0M-0M-0M-0M-0M-0M-0M-0M-0M-0M-0M-0M-0M-0M------| 


----------------------------------------------------| 
----------------------------------------------------| 
----------------------------------------------------| 
--0M-0M----0M----0M-0M-0M-0.----0.----0M-0M----0L---| 
--0M-0M----0M----0M-0M-0M-0.----0.----0M-0M----0L---| 
--0M-0M----0M----0M-0M-0M-0.----0.----0M-0M----0L---| 


----------------------------------------------------| 
----------------------------------------------------| 
----------------------------------------------------| 
--0M-0M-0M-0M-0M-0M-0M-0M-0M-0M-0M-0M-0.------------| 
--0M-0M-0M-0M-0M-0M-0M-0M-0M-0M-0M-0M-0.------------| 
--0M-0M-0M-0M-0M-0M-0M-0M-0M-0M-0M-0M-0.------------| 


----------------------------------------------------| 
----------------------------------------------------| 
----------------------------------------------------| 
--0M-0M----0M----0M-0M-0M-0M-0M-0M----0M-0M----0L---| 
--0M-0M----0M----0M-0M-0M-0M-0M-0M----0M-0M----0L---| 
--0M-0M----0M----0M-0M-0M-0M-0M-0M----0M-0M----0L---| 


----------------------------------------------------| 
----------------------------------------------------| 
----------------------------------------------------| 
--0M-0M-0M-0M-0M-0M-0M-0M-0M-0M-0M-0M-0M-0M-0M------| 
--0M-0M-0M-0M-0M-0M-0M-0M-0M-0M-0M-0M-0M-0M-0M------| 
--0M-0M-0M-0M-0M-0M-0M-0M-0M-0M-0M-0M-0M-0M-0M------| 


----------------------------------------------------| 
----------------------------------------------------| 
----------------------------------------------------| 
--0M-0M----0M----0M-0M-0M-0.----0.----0M-0M----0L---| 
--0M-0M----0M----0M-0M-0M-0.----0.----0M-0M----0L---| 
--0M-0M----0M----0M-0M-0M-0.----0.----0M-0M----0L---| 


----------------------------------------------------|-------|-------|-------| 
----------------------------------------------------|-------|-------|-------| 
----------------------------------------------------|-------|-------|-------| 
--0M-0M-0M-0M-0M-0M-0M-0M-0M-0M-0M-0M-0.------------|--8----|--10---|--0----| 
--0M-0M-0M-0M-0M-0M-0M-0M-0M-0M-0M-0M-0.------------|--8----|--10---|--0----| 
--0M-0M-0M-0M-0M-0M-0M-0M-0M-0M-0M-0M-0.------------|--8----|--10---|--0----| 


-------|----------------------------|----------------------------| 
-------|----------------------------|----------------------------| 
-------|----------------------------|----------------------------| 
--0----|--8M-8M-8M-8M-8M-8M-8M-8M---|--10M10M10M10M10M10M10M10M--| 
--0----|--8M-8M-8M-8M-8M-8M-8M-8M---|--10M10M10M10M10M10M10M10M--| 
--0----|--8M-8M-8M-8M-8M-8M-8M-8M---|--10M10M10M10M10M10M10M10M--| 


----------------------------|----------------------------|-------|-------| 
----------------------------|----------------------------|-------|-------| 
----------------------------|----------------------------|-------|-------| 
--7M-7M-7M-7M-7M-7M-7M-7M---|--0M-0M-0M-0M-0M-0M-0M-0M---|-------|-------| 
--7M-7M-7M-7M-7M-7M-7M-7M---|--0M-0M-0M-0M-0M-0M-0M-0M---|-------|-------| 
--7M-7M-7M-7M-7M-7M-7M-7M---|--0M-0M-0M-0M-0M-0M-0M-0M---|-------|-------| 


----------------------------|----------------------------| 
----------------------------|----------------------------| 
--7--7--7--7--7--7--7--7----|--7--7--7--7----------------| 
--7--7--7--7--7--7--7--7----|--7--7--7--7--7--7--7--7----| 
--5--5--5--5--5--5--5--5----|--5--5--5--5--7--7--7--7----| 
----------------------------|--------------7--7--7--7----| 


----------------------------|----------------------------| 
----------------------------|----------------------------| 
----------------------------|----------------------------| 
--8--8--8--8--8--8--8--8----|--8--8--8--8--7--7--7--7----| 
--8--8--8--8--8--8--8--8----|--8--8--8--8--7--7--7--7----| 
--8--8--8--8--8--8--8--8----|--8--8--8--8--7--7--7--7----| 


----------------------------|----------------------------| 
----------------------------|----------------------------| 
----------------------------|----------------------------| 
--5--5--5--5--5--5--5--5----|--5--5--5--5--7--7--7--7----| 
--5--5--5--5--5--5--5--5----|--5--5--5--5--7--7--7--7----| 
--5--5--5--5--5--5--5--5----|--5--5--5--5--7--7--7--7----| 


----------------------------|----------------------------| 
----------------------------|----------------------------| 
----------------------------|----------------------------| 
--3--3--3--3--3--3--3--3----|--7--7--7--7--7--7--7--7----| 
--3--3--3--3--3--3--3--3----|--7--7--7--7--7--7--7--7----| 
--3--3--3--3--3--3--3--3----|--7--7--7--7--7--7--7--7----| 


----------------------------|----------------------------| 
----------------------------|----------------------------| 
--7--7--7--7--7--7--7--7----|--7--7--7--7----------------| 
--7--7--7--7--7--7--7--7----|--7--7--7--7--7--7--7--7----| 
--5--5--5--5--5--5--5--5----|--5--5--5--5--7--7--7--7----| 
----------------------------|--------------7--7--7--7----| 


----------------------------|----------------------------| 
----------------------------|----------------------------| 
----------------------------|----------------------------| 
--8--8--8--8--8--8--8--8----|--8--8--8--8--7--7--7--7----| 
--8--8--8--8--8--8--8--8----|--8--8--8--8--7--7--7--7----| 
--8--8--8--8--8--8--8--8----|--8--8--8--8--7--7--7--7----| 


----------------------------|----------------------------| 
----------------------------|----------------------------| 
----------------------------|----------------------------| 
--5--5--5--5--5--5--5--5----|--5--5--5--5--7--7--7--7----| 
--5--5--5--5--5--5--5--5----|--5--5--5--5--7--7--7--7----| 
--5--5--5--5--5--5--5--5----|--5--5--5--5--7--7--7--7----| 


----------------------------|-------|-------|-------|-------|-------| 
----------------------------|-------|-------|-------|-------|-------| 
----------------------------|-------|-------|-------|-------|-------| 
--3--3--3--3--3--3--3--3----|-------|--0L---|--0----|--0L---|--0----| 
--3--3--3--3--3--3--3--3----|-------|--0L---|--0----|--0L---|--0----| 
--3--3--3--3--3--3--3--3----|-------|--0L---|--0----|--0L---|--0----| 


----------------------------------------------------| 
----------------------------------------------------| 
----------------------------------------------------| 
----------------------------------------------------| 
----------------------------------------------------| 
--0-----------------------0M-0M-0M-0M-0L------------| 


----------------------------------------------------| 
----------------------------------------------------| 
----------------------------------------------------| 
----------------------------------------------------| 
----------------------------------------------------| 
--0-----------0M-0M-0M-0M-0-----------------0M-0M---| 


----------------------------------------------------| 
----------------------------------------------------| 
----------------------------------------------------| 
----------------------------------------------------| 
----------------------------------------------------| 
--0-----------------------0M-0M-0M-0M-0L------------| 


----------------------------------------------------|-------| 
----------------------------------------------------|-------| 
----------------------------------------------------|-------| 
----------------------------------------------------|-------| 
----------------------------------------------------|-------| 
--0-----------0M-0M-0M-0M---------------------------|-------| 


----------------------------------------------------| 
----------------------------------------------------| 
----------------------------------------------------| 
--0M-0M-0M-0M----0M----0M-0M-0M-0M----0M-0M-0M-0M---| 
--0M-0M-0M-0M----0M----0M-0M-0M-0M----0M-0M-0M-0M---| 
--0M-0M-0M-0M----0M----0M-0M-0M-0M----0M-0M-0M-0M---| 


----------------------------------------------------| 
----------------------------------------------------| 
----------------------------------------------------| 
-----0M----0M-0M-0M-0M-0M-0M-0M-0M----0M-0M-0M------| 
-----0M----0M-0M-0M-0M-0M-0M-0M-0M----0M-0M-0M------| 
-----0M----0M-0M-0M-0M-0M-0M-0M-0M----0M-0M-0M------| 


----------------------------------------------------| 
----------------------------------------------------| 
----------------------------------------------------| 
--0M-0M-0M-0M----0M----0M-0M-0M-0M----0M-0M-0M-0M---| 
--0M-0M-0M-0M----0M----0M-0M-0M-0M----0M-0M-0M-0M---| 
--0M-0M-0M-0M----0M----0M-0M-0M-0M----0M-0M-0M-0M---| 


----------------------------------------------------| 
----------------------------------------------------| 
----------------------------------------------------| 
-----0M----0M-0M-0M-0M-0M-0M-0M-0M----0M-0M-0M-0M---| 
-----0M----0M-0M-0M-0M-0M-0M-0M-0M----0M-0M-0M-0M---| 
-----0M----0M-0M-0M-0M-0M-0M-0M-0M----0M-0M-0M-0M---| 


----------------------------------------------------| 
----------------------------------------------------| 
----------------------------------------------------| 
--0M----------------0M----0M-0M-------0M-0M-0M-0M---| 
--0M----------------0M----0M-0M-------0M-0M-0M-0M---| 
--0M----------------0M----0M-0M-------0M-0M-0M-0M---| 


----------------------------------------------------| 
----------------------------------------------------| 
----------------------------------------------------| 
-----0M----0M-0M-0M-0M-0M-0M-0M-0M----0M-0M-0M-0M---| 
-----0M----0M-0M-0M-0M-0M-0M-0M-0M----0M-0M-0M-0M---| 
-----0M----0M-0M-0M-0M-0M-0M-0M-0M----0M-0M-0M-0M---| 


----------------------------------------------------| 
----------------------------------------------------| 
----------------------------------------------------| 
--0M----------------0M----0M-0M-------0M-0M-0M-0M---| 
--0M----------------0M----0M-0M-------0M-0M-0M-0M---| 
--0M----------------0M----0M-0M-------0M-0M-0M-0M---| 


----------------------------------------------------| 
----------------------------------------------------| 
----------------------------------------------------| 
-----0M----0M-0M-0M-0M-0M-0M-0M-0M----0M-0M-0M------| 
-----0M----0M-0M-0M-0M-0M-0M-0M-0M----0M-0M-0M------| 
-----0M----0M-0M-0M-0M-0M-0M-0M-0M----0M-0M-0M------| 


----------------------------------------------------| 
----------------------------------------------------| 
----------------------------------------------------| 
--0M-0M-0M-0M----0M----0M-0M-0M-0M----0M-0M-0M-0M---| 
--0M-0M-0M-0M----0M----0M-0M-0M-0M----0M-0M-0M-0M---| 
--0M-0M-0M-0M----0M----0M-0M-0M-0M----0M-0M-0M-0M---| 


----------------------------------------------------| 
----------------------------------------------------| 
----------------------------------------------------| 
-----0M----0M-0M-0M-0M-0M-0M-0M-0M----0M-0M-0M------| 
-----0M----0M-0M-0M-0M-0M-0M-0M-0M----0M-0M-0M------| 
-----0M----0M-0M-0M-0M-0M-0M-0M-0M----0M-0M-0M------| 


----------------------------------------------------| 
----------------------------------------------------| 
----------------------------------------------------| 
--0M-0M-0M-0M----0M----0M-0M-0M-0M----0M-0M-0M-0M---| 
--0M-0M-0M-0M----0M----0M-0M-0M-0M----0M-0M-0M-0M---| 
--0M-0M-0M-0M----0M----0M-0M-0M-0M----0M-0M-0M-0M---| 


----------------------------------------------------| 
----------------------------------------------------| 
----------------------------------------------------| 
-----0M----0M-0M-0M-0M-0M-0M-0M-0M------------------| 
-----0M----0M-0M-0M-0M-0M-0M-0M-0M------------------| 
-----0M----0M-0M-0M-0M-0M-0M-0M-0M------------------| 


----------------------------------------------------| 
----------------------------------------------------| 
----------------------------------------------------| 
--0M----------------0M----0M-0M-------0M-0M-0M-0M---| 
--0M----------------0M----0M-0M-------0M-0M-0M-0M---| 
--0M----------------0M----0M-0M-------0M-0M-0M-0M---| 


----------------------------------------------------| 
----------------------------------------------------| 
----------------------------------------------------| 
-----0M----0M-0M-0M-0M-0M-0M-0M-0M----0M-0M-0M-0M---| 
-----0M----0M-0M-0M-0M-0M-0M-0M-0M----0M-0M-0M-0M---| 
-----0M----0M-0M-0M-0M-0M-0M-0M-0M----0M-0M-0M-0M---| 


----------------------------------------------------| 
----------------------------------------------------| 
----------------------------------------------------| 
--0M----------------0M----0M-0M-------0M-0M-0M-0M---| 
--0M----------------0M----0M-0M-------0M-0M-0M-0M---| 
--0M----------------0M----0M-0M-------0M-0M-0M-0M---| 


----------------------------------------------------|-------|-------|-------| 
----------------------------------------------------|-------|-------|-------| 
----------------------------------------------------|-------|-------|-------| 
-----0M----0M-0M-0M-0M-0M---------------------------|--0L---|--0L---|--0L---| 
-----0M----0M-0M-0M-0M-0M---------------------------|--0L---|--0L---|--0L---| 
-----0M----0M-0M-0M-0M-0M---------------------------|--0L---|--0L---|--0L---| 


-------|| 
-------|| 
-------|| 
--0----|| 
--0----|| 
--0----|| 
		  

See also:

tabs All American Rejects - Gives You Hell tabs That 70's show - That 70's show theme song tabs A Day to Remember - All I Want tabs Panic! At The Disco - Build God Then We'll Talk tabs Johan Sebastian Bach - Toccata em Sol. tabs Danny Elfman - Simpsons
e-chords

Other versions:

tabs BlessTheFall - You Wear A Crown But You're No King
auto scroll beats size up size down change color hide chords drawings
tab show chords e-chords YouTube Clip e-chords hide all tabs e-chords go to top tab

share with facebook