Black Star Riders

home > Black Star Riders

Kingdom Of The Lost Tab

Black Star Riders

Difficulty: nolevelnolevel

by renejunior

tuner correct add songbook print version text version save to e-mail
chordsukulelecavacokeyboardtabbassdrumsharmonicsflute Guitar Pro
chords

Kingdom Of The Lost

  		

INTRO 

Acoustic 

E|-----| 
B|-----| 
G|-5-3-| 
D|-5-3-| 
A|-3-1-| 
D|-----| 

INTRO (part 2) 

Electric 1 

E|--------------------------------------------------------------------| 
B|--------------------------------------11----------------------------| 
G|----12-12-12-12-10-8------12r10----13-------12-12-12-12-10-8--------| 
D|-10------------------8/10-------13-------10------------------8/10\8-| 
A|--------------------------------------------------------------------| 
D|--------------------------------------------------------------------| 

Electric 2 

E|------| 
B|------| 
G|------| 
D|-10-8-| 
A|-10-8-| 
D|-10-8-| 

VERSE 

Acoustic 

E|----------------| 
B|----------------| 
G|-8---8-5-3------| 
D|-8-6-8-5-3-x2-6-| 
A|-6-6-6-3-1----6-| 
E|---4----------4-| 

Electric 1+2 

E|-------------------------| 
B|-------------------------| 
G|-------------------------| 
D|-1-6-1-10-8-1-6-1-10-8-6-| 
A|-1-6-1-10-8-1-6-1-10-8-6-| 
D|-1-6-1-10-8-1-6-1-10-8-6-| 

INTRO (part 2) 

VERSE 

Electric 1 

E|----------------| 
B|----------------| 
G|-8---8-5-3------| 
D|-8-6-8-5-3-x2-6-| 
A|-6-6-6-3-1----6-| 
E|---4----------4-| 

Electric 2 

E|-------------------------| 
B|-------------------------| 
G|-------------------------| 
D|-1-6-1-10-8-1-6-1-10-8-6-| 
A|-1-6-1-10-8-1-6-1-10-8-6-| 
D|-1-6-1-10-8-1-6-1-10-8-6-| 

Chorus 

Electric 1 

E|----------------------------------| 
B|----------------------------------| 
G|-8---3-8--8---3-5---3-5---3-8-----| 
D|-8-6-3-8--8-6-3-5-6-3-5-6-3-8-6-8-| 
A|-6-6-1-6--6-6-1-3-6-1-3-6-1-6-6-8-| 
D|---4--------4-----4-----4-----4-6-| 
6 
Electric 2 

E|---------------------------------------| 
B|---------------------------------------| 
G|---------------------------------------| 
D|-1-6-8-1--1-6-8-10-6-8-10-6-8-1----6-8-| 
A|-1-6-8-1--1-6-8-10-6-8-10-6-8-1-x2-6-8-| 
D|-1-6-8-1--1-6-8-10-6-8-10-6-8-1----6-8-| 


INTRO (part 2) 

VERSE 

Electric 1 

E|----------------| 
B|----------------| 
G|-8---8-5-3------| 
D|-8-6-8-5-3-x2-6-| 
A|-6-6-6-3-1----6-| 
E|---4----------4-| 

Electric 2 

E|-------------------------| 
B|-------------------------| 
G|-------------------------| 
D|-1-6-1-10-8-1-6-1-10-8-6-| 
A|-1-6-1-10-8-1-6-1-10-8-6-| 
D|-1-6-1-10-8-1-6-1-10-8-6-| 

Chorus 

SOLO 

Electric 1 

E|----------------------------------------------------------------| 
B|---/10-8------------------10-8-------------10-8-----------------| 
G|---------10-7------------------10-7-------------10-7-------9/10-| 
D|-7------------7/10----7-------------7/10-------------7-10-------| 
A|-------------------10---7----------------7----------------------| 
D|----------------------------------------------------------------| 

-----------------------------------------------| 
----10----------10-8-8-------------------------| 
-10----10-10-12--------10--------7-------------| 
--------------------------7h8h10---10-8h10p8-7-| 
-----------------------------------------------| 
-----------------------------------------------| 

Electric 2 

E|------------------------------------------------| 
B|------------------------------------------------| 
G|-10------10--10------10--------------10------10-| 
D|-10-8-10-10--10-8-10-10-8-10-12-8-10-10-8-10-10-| 
A|-8--8-10-8---8--8-10-8--8-10-12-8-10-8--8-10-8--| 
D|----8-10--------8-10----8-10-12-8-10----8-10----| 


INTRO (part 2) 

SOLO 2 

Electric 1 
(prob a little iffy) 
E|-----------------------------------------------------| 
B|-13--13bbb-13-11----13-13----------------------------| 
G|-----------------12-------12-10-12-10----------------| 
D|--------------------------------------13-12-10-------| 
A|-----------------------------------------------13/15-| 
D|-----------------------------------------------------| 

VERSE 

Chorus 
	  

Search Paypal
auto scroll beats size up size down change color hide chords drawings
tab show chords e-chords YouTube Clip e-chords hide all tabs e-chords go to top tab