Bethesda Softworks

Skyrim Theme

Bethesda Softworks

tabs Easy easy

by  JOV-CORREA

save to print version add songbook text version e-mail correct tuner
chordsukulelecavacokeyboardtabbassdrumsharmonicaflute Guitar Pro
close

there isn't a video lesson for this song

chords

Skyrim Theme

	  		

Hammer on = h 
SLide = s 
pull off = p 


e|---------------------------------------------------------------------------| 
B|---------------------------------------------------------------------------| 
G|---------------------------------------------------------------------------| 
D|---------------------------------------------------------------------------|x3 
A|-2-2-2-2-2-2-2-2-2-4h5-----------------------------------------------------| 
E|---------------------------------------------------------------------------| 

e|---------------------------------------------------------------------------| 
B|-------------------------------------------5-----3-------------------------| 
G|--------------------------------------4----4-----2-------------------------| 
D|---------------------------------4----2------------------------------------| 
A|-2-2-2-2-2-2-2-2-2--4h5-2--4h5---2-----------------------------------------| 
E|---------------------------------------------------------------------------| 

e|-------7------7-----9------------10-9-10---10-9-10-------------------------| 
B|--7----5------8-----10-----------------------------------------------------| 
G|--4------------------------------------------------------------------------| 
D|---------------------------------------------------------------------------| 
A|---------------------------------------------------------------------------| 
E|---------------------------------------------------------------------------| 

e|--9h10h12-10-9s7-------7p5h7---7p5h7---5h7s9s10--5h7-----------------------| 
B|---------------------------------------------------------------------------| 
G|---------------------------------------------------------------------------| 
D|---------------------------------------------------------------------------| 
A|---------------------------------------------------------------------------| 
E|---------------------------------------------------------------------------| 

e|--7h9-10-10-12-14-----------9h10h12-10-9s7---------------------------------| 
B|---------------------------------------------------------------------------| 
G|---------------------------------------------------------------------------| 
D|---------------------------------------------------------------------------| 
A|---------------------------------------------------------------------------| 
E|---------------------------------------------------------------------------| 

e|----7p5h7--7p5h7--5h7s9s10--5h7--------------------------------------------| 
B|---------------------------------------------------------------------------| 
G|---------------------------------------------------------------------------| 
D|---------------------------------------------------------------------------| 
A|---------------------------------------------------------------------------| 
E|---------------------------------------------------------------------------|  
		  

auto scroll beats size up size down change color hide chords drawings
tab show chords e-chords YouTube Clip e-chords hide all tabs e-chords go to top tab

share