Berri Txarrak

home > Berri Txarrak

26 Segundotan Tab

Berri Txarrak

Difficulty: nolevelnolevel

by brunblazkowski

tuner correct add songbook print version text version save to e-mail
chordsukulelecavacokeyboardtabbassdrumsharmonicsflute Guitar Pro
chords

26 Segundotan

  		
(0:39) 
                                  castellano garbian… 

e|——————12——————————————————————————————————————-—————12—15——————————-———————| 
B|————————-—12--13\———-------------------------------------—14\--------------| 
G|————————————————————-12-14-------------------------------------------------| 
D|——————————————————————————-12h14-------------------------------------------| 
A|---------------------------------------------------------------------------| 
E|---------------------------------------------------------------------------| 


ulertzeko moduan 
zinez luzeak izango dira datozen orduak 

Riff A 
                                               3x 
e|----------------------------------------------|-----------------------------------------| 
B|----------------------------------------------|-----------------------------------------| 
G|----------------------------------------------|-----------------------------------------| 
D|———————————————————--------------------12-14——|-12/14—14——12/14—14——12/14—14—-12/14—14——| 
A|12h14-14-14-14-14-14-14-14-14-14-12-14——----——|—12/14—14——12/14—14——12/14—14—-12/14—14——| 
E|0–-0–-0–-0–-0–-0–-0–-0–-0–-0–-0–-0------------|-10/12—12—-10/12—12–-10/12—12—-10/12—12——| 



Maleta eskuetan, igogailuan, gora egin behar 

(light strumming) 

e|------------------------------------------------------------| 
B|----8-----------7--------5-------3---------5----3----5----3-| 
G|----7-----------5--------3-------0---------0----0----0----0-| 
D|----9-----------7--------5-------5---------5----5----5----5-| 
A|----7---------5--------3---------0--------------------------| 
E|——0—--------------------------------------------------------| 


Etimologiari errespetuan, zor zaionez 

(light strumming) 

e|------------------------------------------------------------| 
B|----8-----------7--------5-------3---------5----7----8---10-| 
G|----7-----------5--------3-------0---------0----0----0---0--| 
D|----9-----------7--------5-------5---------5----7----8---10-| 
A|----7---------5--------3-------0----------------------------| 
E|——0—--------------------------------------------------------| 



ahaztu egin nahi duen zenbakia dauka logelak 

(light strumming) 

e|------------------------------------------------------------| 
B|----8-----------7--------5-------3---------5----3----5----3-| 
G|----7-----------5--------3-------0---------0----0----0----0-| 
D|----9-----------7--------5-------5---------5----5----5----5-| 
A|----7---------5--------3-------0----------------------------| 
E|——0—--------------------------------------------------------| 



ahaztu egin nahi duen modu berean berak eskatua dela 

(light strumming) 

e|---------------------------------------| 
B|----8-----------7--------5-------3-----| 
G|----7-----------5--------3-------0-----| 
D|----9-----------7--------5-------5-----| 
A|----7---------5--------3-------0-------| 
E|——0—-----------------------------------| 


* Riff A * 



mobila begiratzen, enegarrenez 

(light strumming) 

e|------------------------------------------------------------| 
B|----8-----------7--------5-------3---------5----3----5----3-| 
G|----7-----------5--------3-------0---------0----0----0----0-| 
D|----9-----------7--------5-------5---------5----5----5----5-| 
A|----7---------5--------3-------0----------------------------| 
E|——0—--------------------------------------------------------| 



inor ez da beraz gogoratu azken 26 segundutan 

(light strumming) 

e|---------------------------------------| 
B|----8-----------7--------5-------3-----| 
G|----7-----------5--------3-------0-----| 
D|----9-----------7--------5-------5-----| 
A|----7---------5--------3-------0-------| 
E|——0—-----------------------------------| 


aspaldian 
                   x2 
e|--------------------|------------------------------------------------------| 
B|--------------------|---------------------------------------------17---17--| 
G|-4————————4—--------|--11---------14-14\9---9----9/12----12----12/16---16--| 
D|-4————————4—--------|------------------------------------------------------| 
A|—2————————2—————————|—-9----------12-12\7---7----7/10----10----10/14---14--| 
E|————————-—3—————————|------------------------------------------------------| 



oraindik ez daki baina… 

                   x2 
e|--------------------|------------------------------------------------------| 
B|--------------------|---------------------------------------------17---17--| 
G|-4————————4—--------|--11---------14-14\9---9----9/12----12----12/16---16--| 
D|-4————————4—--------|------------------------------------------------------| 
A|—2————————2—————————|—-9----------12-12\7---7----7/10----10----10/14---14--| 
E|————————-—3—————————|------------------------------------------------------| 



(3:37) 
                                          x2 
e|------------------------------------------| 
B|------------------------------------------| 
G|-12/14-14—11—11/12—12—9—9/11—11—12\9—9————| 
D|------------------------------------------| 
A|-10/12-12—9—--9/10—10—7—7/9—-9—-10\7—7----| 
E|------------------------------------------| 


                                          x2 
e|------------------------------------------| 
B|------------------------------------------| 
G|-12/14-14—11—11/12—12—--------------------| 
D|------------------------------------------| 
A|-10/12-12—9—--9/10—10—--------------------| 
E|------------------------------------------| 


                                          x2 
e|------------------------------------------| 
B|------------------------------------------| 
G|-12/14-14—11—11/12—12—9—9/11—11—12\9—9————| 
D|------------------------------------------| 
A|-10/12-12—9—--9/10—10—7—7/9—-9—-10\7—7----| 
E|------------------------------------------| 


                                          x2 
e|------------------------------------------| 
B|------------------------------------------| 
G|-12/14-14—11—11/12—12—--------------------| 
D|------------------------------------------| 
A|-10/12-12—9—--9/10—10—--------------------| 
E|------------------------------------------| 


Oraindik ez... 
                                          x2 
e|------------------------------------------| 
B|------------------------------------------| 
G|-12/14-14—11—11/12—12—9—9/11—11—12\9—9————| 
D|------------------------------------------| 
A|-10/12-12—9—--9/10—10—7—7/9—-9—-10\7—7----| 
E|------------------------------------------| 


e|-------------------------------------------| 
B|-------------------------------------------| 
G|-12/14-14—11—11/12—12—--17-----------------| 
D|------------------------------9-9-12-9-----| 
A|-10/12-12—9—--9/10—10—--15----9-9-12-9----—| 
E|------------------------------7-7-10-7-----| 



Oraindik ez! Oraindik ez! Oraindik ez! 
                                          x2 
e|------------------------------------------| 
B|------------------------------------------| 
G|-12/14-14—11—11/12—12—9—9/11—11—12\9—9————| 
D|------------------------------------------| 
A|-10/12-12—9—--9/10—10—7—7/9—-9—-10\7—7----| 
E|------------------------------------------| 


e|------------------------------------------| 
B|------------------------------------------| 
G|-12/14-14—11—11/12—12—--17----------------| 
D|------------------------------9-9-12-9-2--| 
A|-10/12-12—9—--9/10—10—--15----9-9-12-9-2-—| 
E|------------------------------7-7-10-7-0--| 

* Riff A till fade 

************************************ 
| /   slide up 
| \   slide down 
| h   hammer-on 
| p   pull-off 
************************************ 
	  

Full key step upFull key step up
Half key step upHalf key step up
Half key step downHalf key step down
Full key step downFull key step down
Search Paypal
auto scroll beats size up size down change color hide chords drawings
tab show chords e-chords YouTube Clip e-chords hide all tabs e-chords go to top tab