Being As An Ocean

This Room Is Alive

Being As An Ocean

tabs

by  AMAN_CLAUDINO

save to print version add songbook text version e-mail correct tuner
chordsukulelecavacokeyboardtabbassdrumsharmonicaflute Guitar Pro
close

there isn't a video lesson for this song

chords

This Room Is Alive

	  		

Intro 

Guitar 1 and 2 
0:01-0:28 
|----------------------------| 
|----------------------------| 
|--5/12\9--5/12\9---10\9--7--| 
|--x-x--x--x-x--x---x--x--x--| 
|--3/10\7--3/10\7---8\-7--5--| 
|----------------------------| 
| 
|x4 

Guitar 1 and 2 
0:28-0:50                      
|--------------------------------| 
|--------------------------------| 
|--------------------------------| 
|--10~-----9~------5~------------| 
|--7-~-----5~------3~------------| 
|--7-~-----5~------3~------------| 
| 
|x2 

Guitar 1 and 2 
0:50-0:54 
|--------------------------------------| 
|--------------------------------------| 
|--------------------------------------| 
|--5-----------------5-5-5-5--5-5-5-5--| 
|--3-3-3-3--3-3-3-3--3-3-3-3--3-3-3-3--| 
|--3-3-3-3--3-3-3-3--3-3-3-3--3-3-3-3--| 
|    . . .  . . . . 
|x1 

Guitar 1 and 2 
0:54-!:10 
|--------------------------| 
|--------------------------| 
|--------------------------| 
|---10-10--9-9-10--5--7-7--| 
|---7--7---5-5-7---3--3-3--| 
|---7--7---5-5-7---3--3-3--| 
| 
|x4 

Repeat intro  
1:10-1:34 

Guitar 1 and 2 
1:34-1:38 
|-------| 
|-------| 
|-------| 
|--12~--| 
|--10~--| 
|--12~--| 

Guitar 1 and 2 
This is the part I am least sure about 
1:38-2:25 
|----------------------------------------------| 
|----------------------------------------------| 
|--12-12-12-12-12-12--12~---12-12-12-12-12-12--| 
|--10-10-10-10-10-10--9-~---9--9--9--9--9--9---| 
|--10-10-10-10-10-10--10~---10-10-10-10-10-10--| 
|--10-10-10-10-10-10--10----10-10-10-10-10-10--| 


Guitar 1 
2:25-2:48  2:49-END 
|------------|------------| 
|------------|------------| 
|--12--------|-------12~--| 
|--10--10-9~-|--9/10-10~--| 
|--12--------|-------12~--| 
|------------|------------| 
		  

See also:

tabs Jack Johnson - Good People tabs Rage Against The Machine - Killing In The Name (ver. 2) tabs Blue Oyster Cult - Dont Fear The Reaper tabs R.E.M. - Losing my religion tabs Smashing Pumpkins - Today tabs Foo Fighters - Learn to Fly (acoustic version)
e-chords

Other versions:

tabs Being As An Ocean - This Room Is Alive
auto scroll beats size up size down change color hide chords drawings
tab show chords e-chords YouTube Clip e-chords hide all tabs e-chords go to top tab

share