Backtrack

home > Backtrack

Erase The Rat Tab

Backtrack

Difficulty: nolevelnolevel

by sabrjoao

tuner correct add songbook print version text version save to e-mail
chordsukulelecavacokeyboardtabbassdrumsharmonicsflute Guitar Pro
chords

Erase The Rat

  		

Intro 
d|---------------------------------------------------------------------------| 
A|---------------------------------------------------------------------------| 
F|---------------------------------------------------------------------------| 
C|---------------------------------------------------------------------------| 
G|-7-------10------6------------7-----10-------------------------------------| 
D|-5-------8-------4------------5------8-------------------------------------| 

Main Riff 
e|---------------------------------------------------------------------------| 
B|---------------------------------------------------------------------------| 
G|---------------------------------------------------------------------------| 
D|---------------------------------------------------------------------------| 
A|7-----------6-7--10-101010---7---------10-9--4-444-------------------------| 
E|55555-55----4-5--8--8-8-8----55555-55--8--7--6-666-------------------------| 

e|---------------------------------------------------------------------------| 
B|---------------------------------------------------------------------------| 
G|---------------------------------------------------------------------------| 
D|---------------------------------------------------------------------------| 
A|-7-----7------7------7---------66-9-7--6-\5--5-/6----------------5555555-6-| 
E|-5-----5------5------5---------44-7-5--4-\3--3-/4----------------3333333-4-| 
   E---RASE    THE    RAT                                           xxxxxx 

Main Riff 
e|---------------------------------------------------------------------------| 
B|---------------------------------------------------------------------------| 
G|---------------------------------------------------------------------------| 
D|---------------------------------------------------------------------------| 
A|7-----------6-7--10-101010---7---------10-9--4-444-------------------------| 
E|55555-55----4-5--8--8-8-8----55555-55--8--7--6-666-------------------------| 

e|---------------------------------------------------------------------------| 
B|---------------------------------------------------------------------------| 
G|---------------------------------------------------------------------------| 
D|---------------------------------------------------------------------------| 
A|-7-----7------7------7---------66-9-7--6-\5--5-/6----------------5555555-6-| 
E|-5-----5------5------5---------44-7-5--4-\3--3-/4----------------3333333-4-| 
   E---RASE    THE    RAT                                           xxxxxx 

Last riff not sure how to play it, but this is what I've got. please correct if you can 
e|---------------------------------------------------------------------------| 
B|---------------------------------------------------------------------------| 
G|---------------------------------------------------------------------------| 
D|---------------------------------------------------------------------------| 
A|7-7--10\9---7-77--10\9--8\7--7-7---10\9--11-11-11--10\9--8\7---------------| 
E|5-5---8\7---5-55---8\7--6\5--5-5----8\7--9--9--9----8\7--6\5---------------| 

e|----------------------------------------------------------------------------------------| 
B|----------------------------------------------------------------------------------------| 
G|----------------------------------------------------------------------------------------| 
D|----------------------------------------------------------------------------------------| 
A|-7-----7------7------7----5555555-6--------66-9-7--6-\5--5-/6----------------5555555-6--| 
E|-5-----5------5------5----3333333-4--------44-7-5--4-\3--3-/4----------------3333333-4--| 
   E---RASE    THE    RAT    xxxxxx                                             xxxxxx 


************************************ 

| /   slide up 
| \   slide down 
| x   Mute note 


************************************ 
	  

Search Paypal
auto scroll beats size up size down change color hide chords drawings
tab show chords e-chords YouTube Clip e-chords hide all tabs e-chords go to top tab