Backtrack

home > Backtrack

Crooks Die Slow Tab

Backtrack

Difficulty: nolevelnolevel

by victborges

tuner correct add songbook print version text version save to e-mail
chordsukulelecavacokeyboardtabbassdrumsharmonicsflute Guitar Pro
chords

Crooks Die Slow

  		Intro 

eb|-----------------------------------------------------| 
Bb|-----------------------------------------------------| 
Gb|-----------------------------------------------------| 
Db|---7--6~---------------------------------------------| 
Ab|---7--6~---------------------------------------------| 
Eb|---5--4~---------------------------------------------| 


Verse x4 0:08-0-18 

eb|---------------|--------------------------------------| 
Bb|---------------|--------------------------------------| 
Gb|---------------|--------------------------------------| 
Db|---------------|--------------------------------------| 
Ab|-4-6---7-6-7---|-10-7--10---11-10-7-10----------------| 
Eb|-2-4---5-4-5---|-8--5--8----9--8--5-8-----------------| 




Chorusx2 0:18-0:28 

eb|-----------------------|------------------------|------------------------|-------------------| 
Bb|-----------------------|------------------------|------------------------|-------------------| 
Gb|-----------------------|------------------------|------------------------|-------------------| 
Db|-----------------------|------------------------|------------------------|-------------------| 
Ab|--7-7-7-6--------------|--7-7-7-6---------------|---7-7-7-6--------------|--10-7-10-7-10-11--| 
Eb|--5-5-5-4--4-4-4-4-4-4-|--5-5-5-4--4-4-4-4-4-4--|---5-5-5-4--4-4-4-4-4-4-|--8--5-8--5-8--9---| 


Verse x40:28-0:38 

eb|---------------|--------------------------------------| 
Bb|---------------|--------------------------------------| 
Gb|---------------|--------------------------------------| 
Db|---------------|--------------------------------------| 
Ab|-4-6---7-6-7---|-10-7--10---11-10-7-10----------------| 
Eb|-2-4---5-4-5---|-8--5--8----9--8--5-8-----------------| 


Chorus  x2 0:39-0:48 

eb|-----------------------|------------------------|------------------------|-------------------| 
Bb|-----------------------|------------------------|------------------------|-------------------| 
Gb|-----------------------|------------------------|------------------------|-------------------| 
Db|-----------------------|------------------------|------------------------|-------------------| 
Ab|--7-7-7-6--------------|--7-7-7-6---------------|---7-7-7-6--------------|--10-7-10-7-10-11--| 
Eb|--5-5-5-4--4-4-4-4-4-4-|--5-5-5-4--4-4-4-4-4-4--|---5-5-5-4--4-4-4-4-4-4-|--8--5-8--5-8--9---| 

P.M           - - - - - -             - - - - - -               - - - - - - 

Bridge 0:49-0:52 

eb|-----------------|----------------------|------------------| 
Bb|-----------------|----------------------|------------------| 
Gb|-----------------|----------------------|------------------| 
Db|-----------------|----------------------|-----6-5-----5----| 
Ab|-10-7-10-7-10-11-|-----10-7-10-7-10-11--|-----4-3-7---3-6--| 
Eb|-8--5-8--5-8--9--|-----8--5-8--5-8--9---|---------5-----4--| 


Outro 0:53- end 

eb|----------|------------|----------------------------------| 
Bb|----------|------------|----------------------------------| 
Gb|----------|------------|----------------------------------| 
Db|--------7-|--------6-5-|--------------7------------6-5----| 
Ab|-6-6-7--5-|---7-6--4-3-|----6-6-7-6---5------7-6---4-3----| 
Eb|-4-4-5----|---5-4------|----4-4-5-4----------5-4----------| 

P.M - - -        - -           - - - -          - - 


eb|------------------|-----------------------------------| 
Bb|------------------|-----------------------------------| 
Gb|------------------|-----------------------------------| 
Db|--6~------4--6~---|----------6----------6-5-----------| 
Ab|--6~------4--6~---|-6-6-7----4--7-6-----4-3-----------| 
Eb|--4~------2--4~---|-4-4-5-------5-4-------------------| 


*********************************** 
| /   Slide up 
| \   Slide down 
| h   Hammer-on 
| p   Pull-off 
| ~   Vibrato 
| x   Dead note 
*********************************** 
	  

Search Paypal
auto scroll beats size up size down change color hide chords drawings
tab show chords e-chords YouTube Clip e-chords hide all tabs e-chords go to top tab