Audioslave

Be Yourself

Audioslave

tabs Beginner beginner

by  EDUARDO_LYVIO

save to print version add songbook text version e-mail correct tuner
chordsukulelecavacokeyboardtabbassdrumsharmonicaflute Guitar Pro
close
be-yourself-by-audioslave

there is a video lesson for this song

chords

Be Yourself

(Chris Cornell)

	  		  
  
Intro:  
  
e|-2-----------------2--2-----------------2-  
B|-3---2(3)2--------3---3---2(3)2--------3--  
G|-4---------------4----4---------------4---  
D|-4--------------4-----4--------------4----  
A|-2-----------2-2------2-----------2-2-----  
E|-------------0--------------------0-------  
  
Verso:  
  
e|-7-7-7-7-7-7----5---9-10---12/9-9--10/5-5/7-  
B|--------------7-----------------------------  
G|--------------------------------------------  
D|--------------------------------------------  
A|--------------------------------------------  
E|--------------------------------------------  
  
e|-7----5---9-10---9/5-5---9/7-7----5---9-10--  
B|----7------------------7--------7-----------  
G|--------------------------------------------  
D|--------------------------------------------  
A|--------------------------------------------  
E|--------------------------------------------  
  
e|-12/9-9---10/5-5/7-7----5---9-10---9/5-5--  
B|----------------------7-------------------  
G|------------------------------------------  
D|------------------------------------------  
A|------------------------------------------  
E|------------------------------------------  
  
e|---9/7-7----5---9-10---12/9-9---10/5-5/7-7-  
B|-7--------7--------------------------------  
G|-------------------------------------------  
D|-------------------------------------------  
A|-------------------------------------------  
E|-------------------------------------------  
  
e|---5---9-10---9/5-5------------------------  
B|-7-----------------------------------------  
G|-------------------------------------------  
D|-------------------------------------------  
A|-----------------------9-9-9-9-9-9-9-9-9-9-  
E|-----------------------7-7-7-7-7-7-7-7-7-7-  
  
Refrão: Bm D G Em  
  
Verso:  
  
e|-7---5---9-10---9/5-5---9/7-7----5---9-10-  
B|---7------------------7--------7----------  
G|------------------------------------------  
D|------------------------------------------  
A|------------------------------------------  
E|------------------------------------------  
  
e|--12/9-9---10/5-5/7-7----5---9-10---9/5-5-  
B|-----------------------7------------------  
G|------------------------------------------  
D|------------------------------------------  
A|------------------------------------------  
E|------------------------------------------  
  
e|---9/7-7----5---9-10---12/9-9---10/5-5/7-  
B|-7--------7------------------------------  
G|-----------------------------------------  
D|-----------------------------------------  
A|-----------------------------------------  
E|-----------------------------------------  
  
  
e|-7---5---9-10-----------------------  
B|---7--------------------------------  
G|------------------------------------  
D|-------------7----------------------  
A|-------------5--7-7-7-7-7-7-7-7-7-7-  
E|----------------9-9-9-9-9-9-9-9-9-9-  
  
Refrão: Bm D G Em  
  
  
  
Interlúdio: G A Bm D  
  
Depois:  
  
e|-----------------------  
B|-----------------------  
G|-----------------------  
D|-----------------------  
A|-7-7-7-7-7-7-7-7-7-7---  
E|-9-9-9-9-9-9-9-9-9-9---  
  
Refrão: Bm D G Em  
  
 

		  

Full key step upFull key step up
Half key step upHalf key step up
Half key step downHalf key step down
Full key step downFull key step down
auto scroll beats size up size down change color hide chords drawings
tab show chords e-chords YouTube Clip e-chords hide all tabs e-chords go to top tab

share