Audioslave

home > Audioslave

Be Yourself Bass Tab

Audioslave

Difficulty: nolevelnolevel

by eduardo%5Flyvio

tuner correct add songbook print version text version save to e-mail
chordsukulelecavacokeyboardtabbassdrumsharmonicsflute Guitar Pro
chords

Be Yourself

(Chris Cornell)

  		Afinação (B, E, A, D) 
 
Verse: 
|----------------------------------------| 
|-------00555555-----------------\7777---|x 5   
|-666666----------222222-----------------|   
|---------------66------6\\4444----------| 
 
|-----------------------------------------------------| 
|-------00555555------------------\77777777777777777--|x 1  
|-666666----------222222------------------------------|   
|---------------66------6\\44444----------------------| 
 
Chorus: 
|---------------------------------------| 
|-------00555555-----------------\7777--|x 3 
|-666666----------222222----------------|   
|---------------66------6\\4444---------| 
 
Verse: 
|----------------------------------------| 
|-------00555555-----------------\7777---|x 4   
|-666666----------222222-----------------|   
|---------------66------6\\4444----------| 
 
|---------------2-45--55-2----------------------------------| 
|-------00555555----------55555555------------555555--------|   
|-666666--------------------------446666666644--------2~~---|   
|---------------------------------------------------66------| 
 
|---------| 
|---------|x 1   
|---------|   
|-444444--| 
 
Chorus: 
|---------------------------------------| 
|-------00555555-----------------\7777--|x 4 
|-666666----------222222----------------|   
|---------------66------6\\4444---------| 
 
Guitar Solo: 
|---------------------------------------| 
|-------00555555-----------------\7777--|x 4 
|-666666----------222222----------------|   
|---------------66------6\\4444---------| 
 
Bridge: 
|-----------------------------------| 
|-------------------------9997775---|x 2  
|-66666666444444--666666------------|   
|---------------69------66----------| 
 
|------------------99999999---------44444-\9-77777-\11-| 
|---------\7777777---------99977755------5--------9----| x1  
|-6666664---------9------------------------------------|   
|--------6---------------------------------------------| 
 
|-9999999999999999--------------------------| 
|-----------------10101010101010577777777---|x 2   
|-------------------------------------------|   
|-------------------------------------------| 
 
End: 
|---------------------------------------| 
|-------00555555-----------------\7777--|x 3 
|-666666----------222222----------------|   
|---------------66------6\\4444---------| 
 
|---------------------------------------------| 
|-------00555555-----------------\7777777-----|x 1 
|-666666----------222222-----------------6~~--|   
|---------------66------6\\4444---------------| 
 
 
 

	  

Full key step upFull key step up
Half key step upHalf key step up
Half key step downHalf key step down
Full key step downFull key step down
Search Paypal
auto scroll beats size up size down change color hide chords drawings
tab show chords e-chords YouTube Clip e-chords hide all tabs e-chords go to top tab