Aspiring Superheroes

Lights Out!

Aspiring Superheroes

tabs

by  WEEZER PILLOWS

save to print version add songbook text version e-mail correct tuner
chordsukulelecavacokeyboardtabbassdrumsharmonicaflute Guitar Pro
close

there isn't a video lesson for this song

chords

Lights Out!

	  		STANDARD TUNING 
 
bass intro 
g|----------------------------------------------| 
d|----------------------------------------------| 
a|-555555555555555-4-3-2-111111111111111-2-3-4--| 
e|----------------------------------------------| 
 
Then... 
|------------------------------------| 
|-----6-----6------------------------| 
|--7-----7----7------7---------------| 
|--------------7--8-----8---8-7------| 
|-5--5--5--5--------------------8-7--| 
|----------------6--6--6--6----------| 
 
repeat a few times, then... 
|------------------------------------------| 
|------------------------------------------| 
|------------------------------------------| 
|-----------------7-8-7~-8p7-8p7-10p7-8p7--| 
|--8~-7~-8-7-8-10--------------------------| 
|------------------------------------------| 
 
then... 
|------------------------------------------------ 
|------------------------------------------------ 
|--------10-10-10----------------------10-10-10-- 
|--12-12-10-10-10-12-12-10-10-10-12-12-10-10-10-- 
|--12-12--8--8--8-12-12-10-10-10-12-12--8--8--8-- 
|--10-10----------10-10--8--8--8-10-10----------- 
 
|------------------| 
|------------------| 
|--14--14--17--17--| 
|--14--14--17--17--| 
|--12--12--15--15--| 
|------------------| 
 
then... 
|----------------------------------------------------- 
|------6-6-6-9p8p6------6-6-6-10p8p6-----6-6-6-9p8p5-- 
|--5h7--7-7---------5h7--7-7---------5h7--7-7--------- 
|----------------------------------------------------- 
|----------------------------------------------------- 
|----------------------------------------------------- 
 
|----------------------------| 
|--9p8p5-9p8p5-5h8h9-9p8p5---| 
|----------------------------| 
|----------------------------| 
|----------------------------| 
|----------------------------| 
 
End On 
|------| 
|------| 
|------| 
|--12--| 
|--12--| 
|--10--| 
 
 

		  

See also:

tabs Red Hot Chili Peppers - Fortune Faded tabs Red Hot Chili Peppers - Scar Tissue (ver. 3) tabs Ben Harper - Sexual Healing tabs Red Hot Chili Peppers - Snow hey oh tabs Red Hot Chili Peppers - Dosed tabs Jonas Brothers - Love Bug Solo
e-chords

Other versions:

tabs The Pod - Lights out tabs Hollywood Undead - Lights Out tabs Aspiring Superheroes - Lights Out!
auto scroll beats size up size down change color hide chords drawings
tab show chords e-chords YouTube Clip e-chords hide all tabs e-chords go to top tab

share