Aspiring Superheroes

Robot Party

Aspiring Superheroes

tabs

by  WEEZER PILLOWS

save to print version add songbook text version e-mail correct tuner
chordsukulelecavacokeyboardtabbassdrumsharmonicaflute Guitar Pro
close

there isn't a video lesson for this song

chords

Robot Party

	  		STANDARD TUNING 
 
h - hammer on 
p - pull-off 
b - bend 
 
Intro - guitar 1 
|--------------------------| 
|--------------------------| 
|--5--5--------------------| 
|--5--5--5--5--3--3--5--5--| 
|--3--3--5--5--3--3--5--5--| 
|--------3--3--1--1--3--3--| 
 
Intro - guitar 2 - i don't know if this is completely 
correct but it's how i play it  
|--8p5h8p5h8p5h8p5------------------------------------| 
|------------------8p5h8p5h8p5h8p5--------------------| 
|----------------------------------7p5h7p5h7p5-7b-555-| 
|-----------------------------------------------------| 
|-----------------------------------------------------| 
|-----------------------------------------------------| 
 
Chorus / Verse - verse is palm muted 
|-----------------------------------| 
|-----------------------------------| 
|--5-5-5-5--------------------------| 
|--5-5-5-5-5-5-5-5-3-3-3-3-5-5-5-5--| 
|--3-3-3-3-5-5-5-5-3-3-3-3-5-5-5-5--| 
|----------3-3-3-3-1-1-1-1-3-3-3-3--| 
 
Bridge 
|-----------p------------| 
|---8-------a------------| 
|--5--------u------------| 
|-----5-5---s---3-3-5-5--| 
|-----------e------------| 
|------------------------| 
 
end on C5 

		  

Full key step upFull key step up
Half key step upHalf key step up
Half key step downHalf key step down
Full key step downFull key step down
hide glossary

See also:

tabs Red Hot Chili Peppers - Venice Queen tabs Hale - Blue Sky tabs Jay-z & Linkin Park - Numb / Encore tabs Red Hot Chili Peppers - Scar Tissue (ver. 3) tabs Audioslave - Like a Stone tabs Red Hot Chili Peppers - Californication
e-chords

Other versions:

tabs Aspiring Superheroes - Robot Party
auto scroll beats size up size down change color hide chords drawings
tab show chords e-chords YouTube Clip e-chords hide all tabs e-chords go to top tab

share