Architects

Day In Day Out

Architects

tabs

by  UBIRBOMFIM

save to print version add songbook text version e-mail correct tuner
chordsukulelecavacokeyboardtabbassdrumsharmonicaflute Guitar Pro
close

there isn't a video lesson for this song

chords

Day In Day Out

	  		

Tuning: C#  F#  B  E  G#  C#  




|-----------------------------------------------------| 
|-----------------------------------------------------| 
|-----------------------------------------------------| 
|---4-4-----------------------------------------------| 
|---4-4-----------------------------------------------| 
|---2-2-3*-3*-3*-3*-3*-3*-3*-3*-3*-3*-3---------------| 

|-----------------------------------------------------| 
|-----------------------------------------------------| 
|-----------------------------------------------------| 
|---4-X-4-4-4-----------------------------------------| 
|---4-X-4-4-4-----------------------------------------| 
|---2-X-2-2-2-3*-3*-3*-3*-3*-3*-3*--------------------| 

|----------------------------------------------------------------------| 
|----------------------------------------------------------------------| 
|----------------------------------------------------------------------| 
|---7-7-7-7-7-7-7--4-4-------------------------------------------------| 
|---5-5-5-5-5-5-5--4-4-------------------------------------------------| 
|---5-5-5-5-5-5-5--2-2-3* x11 times------------------------------------| 

|------------------------------------------------------------------| 
|------------------------------------------------------------------| 
|------------------------------------------------------------------| 
|---4-X-X-4-X-4-4-The years I put into this------------------------| 
|---4-X-X-4-X-4-4--------------------------------------------------| 
|---2-X-X-2-X-2-2--------------------------------------------------| 

|-----------------------------------------------------| 
|-----------------------------------------------------| 
|-----------------------------------------------------| 
|---4-4-----------------------------------------------| 
|---4-4-----------------------------------------------| 
|---2-2-3*-3*-3*-3*-3*-3*-3*-3*-3*-3*-3---------------| 

|-----------------------------------------------------| 
|-----------------------------------------------------| 
|-----------------------------------------------------| 
|---4-X-4-4-4-----------------------------------------| 
|---4-X-4-4-4-----------------------------------------| 
|---2-X-2-2-2-3*-3*-3*-3*-3*-3*-3*--------------------| 

|---------------------------------------------------| 
|---------------------------------------------------| 
|---------------------------------------------------| 
|---7-7-7-7-7-7-7--4-4------------------------------| 
|---5-5-5-5-5-5-5--4-4------------------------------| 
|---5-5-5-5-5-5-5--2-2-3* x11 times-----------------| 

|------------------------------------------------------------------| 
|------------------------------------------------------------------| 
|------------------------------------------------------------------| 
|---4-X-X-4-X-4-4----------------------7-7-7-7-7-7-----------------| 
|---4-X-X-4-X-4-4----------------------5-5-5-5-5-5-----------------| 
|---2-X-X-2-X-2-2-3*-3*-3*-3*-3*--5-5-5-5-5-5----------------------| 

Verse: 

|---------------------------------------------------------------------------| 
|---------------------------------------------------------------------------| 
|--------------------6--6-6------------13-13-13-13-13-13?13-13-13-13-13-13--| 
|---4?4--4-4-4--X-X-X---7--7-7----------------------------------------------| 
|---4?4--4-4-4--4--4-4----7--7-7-11-11-11-11-11-11?11-11-11-11-11-11--------| 
|---2?2--2-2-2-------------5--5-5-------------------------------------------| 


Repeat this again: 
 I did not put most of the strumming patterns in because the format of the tab is  
starting to piss me off so figure it out for yourselves. 

Chorus: 

|------------------------------------------|-------------------------------------------| 
|------------------------------------------|-------------------------------------------| 
|------------------------------------------|-2-2-2-2-2-2-2-2-2-2-2-2-2-2-2-2-----------| 
|---4-4-4-4-4-4-4-4-4-4-4-4-4-4-4-4|-4-4-4-4-4-4-4-4-4-4-4-4-4-4-4-4-------------------| 
|---4-4-4-4-4-4-4-4-4-4-4-4-4-4-4-4|-4-4-4-4-4-4-4-4-4-4-4-4-4-4-4-4-------------------| 
|---2-2-2-2-2-2-2-2-2-2-2-2-2-2-2-2|-2-2-2-2-2-2-2-2-2-2-2-2-2-2-2-2-------------------| 

|---0-0-0-0-0-0-0-0-0-0-0-0-0-0-0-0|--------------------------------------------------| 
|---0-0-0-0-0-0-0-0-0-0-0-0-0-0-0-0|--------------------------------------------------| 
|---4-4-4-4-4-4-4-4-4-4-4-4-4-4-4-4|-16-16-16-16-16-16-16-16-14-14-14-14-13-13-13-13--| 
|---4-4-4-4-4-4-4-4-4-4-4-4-4-4-4-4|--------------------------------------------------| 
|---2-2-2-2-2-2-2-2-2-2-2-2-2-2-2-2|-14-14-14-14-14-14-14-14-12-12-12-12-11-11-11-11--| 
|------------------------------------------|------------------------------------------| 

Bridge: 

|-----------------------------------------|---------------------|----------| 
|------------------------3-3-3-3-3-3-3-|-------------3-3-3-|---------------| 
|------------------------6-6-6-6-6-6-6-|-------------6-6-6-|---------------| 
|---4-4-X-4-X-4-4-4------------------|---4-4-X-2--------|---X-4------------| 
|---4-4-X-4-X-4-4-4------------------|---4-4-X-2--------|---X-4--------5---| 
|---2-2-X-2-X-2-2-2------------------|---2-2-X-2--------|---X-2---0-2?2?0--| 



|-----------------------------------------|-----------------------------------------| 
|------------------------3-3-3-3-3-3-3-|-------------3-3-3--------------------------| 
|------------------------6-6-6-6-6-6-6-|-------------6-6-6--------------------------| 
|---4-4-X-4-X-4-4-4------------------|---4-4-X-4--------X-4?X-4-4-4-----------------| 
|---4-4-X-4-X-4-4-4------------------|---4-4-X-4--------X-4?X-4-4-4-----------------| 
|---2-2-X-2-X-2-2-2------------------|---2-2-X-2--------X-2?X-2-2-2-----------------| 

Someone tell me how I?ve ended up here 

|----------------------------------------|-----------------------| 
|----------------------------------------|-----------------------| 
|----------------------------------------|-----------------------| 
|---4-4---------------------------------|---X-4?X-4-4-4----------| 
|---4-4---------------------------------|---X-4?X-4-4-4----------| 
|---2-2---------------------------------|---X-2?X-2-2-2----------| 

With nobody watching over me 
|----------------------------------------|-----------------------| 
|----------------------------------------|-----------------------| 
|----------------------------------------|-----------------------| 
|---4-4---------------------------------|---X-4?X-4-4-4----------| 
|---4-4---------------------------------|---X-4?X-4-4-4----------| 
|---2-2---------------------------------|---X-2?X-2-2-2----------| 

|-----------------------------------------------------| 
|-----------------------------------------------------| 
|-----------------------------------------------------| 
|---4-4-----------------------------------------------| 
|---4-4-----------------------------------------------| 
|---2-2-3*-3*-3*-3*-3*-3*-3*-3*-3*-3*-3---------------| 

|-----------------------------------------------------| 
|-----------------------------------------------------| 
|-----------------------------------------------------| 
|---4-X-4-4-4-----------------------------------------| 
|---4-X-4-4-4-----------------------------------------| 
|---2-X-2-2-2-3*-3*-3*-3*-3*-3*-3*--------------------| 

|----------------------------------------------------------------------| 
|----------------------------------------------------------------------| 
|----------------------------------------------------------------------| 
|---7-7-7-7-7-7-7--4-4-------------------------------------------------| 
|---5-5-5-5-5-5-5--4-4-------------------------------------------------| 
|---5-5-5-5-5-5-5--2-2-3* x11 times------------------------------------| 

|------------------------------------------------------------------| 
|------------------------------------------------------------------| 
|------------------------------------------------------------------| 
|---4-X-X-4-X-4-4----------------------7-7-7-7-7-7-----------------| 
|---4-X-X-4-X-4-4----------------------5-5-5-5-5-5-----------------| 
|---2-X-X-2-X-2-2-3*-3*-3*-3*-3*--5-5-5-5-5-5----------------------| 

Verse: 

|---------------------------------------------------------------------------| 
|---------------------------------------------------------------------------| 
|--------------------6--6-6------------13-13-13-13-13-13?13-13-13-13-13-13--| 
|---4?4--4-4-4--X-X-X---7--7-7----------------------------------------------| 
|---4?4--4-4-4--4--4-4----7--7-7-11-11-11-11-11-11?11-11-11-11-11-11--------| 
|---2?2--2-2-2-------------5--5-5-------------------------------------------| 

Repeat this again. 
Chorus: 

|----------------------------------|---------------------------------| 
|----------------------------------|---------------------------------| 
|----------------------------------|-2-2-2-2-2-2-2-2-2-2-2-2-2-2-2-2-| 
|---4-4-4-4-4-4-4-4-4-4-4-4-4-4-4-4|-4-4-4-4-4-4-4-4-4-4-4-4-4-4-4-4-| 
|---4-4-4-4-4-4-4-4-4-4-4-4-4-4-4-4|-4-4-4-4-4-4-4-4-4-4-4-4-4-4-4-4-| 
|---2-2-2-2-2-2-2-2-2-2-2-2-2-2-2-2|-2-2-2-2-2-2-2-2-2-2-2-2-2-2-2-2-| 

|-0-0-0-0-0-0-0-0-0-0-0-0-0-0-0-0|----------------------------------------------------| 
|-0-0-0-0-0-0-0-0-0-0-0-0-0-0-0-0|----------------------------------------------------| 
|-4-4-4-4-4-4-4-4-4-4-4-4-4-4-4-4|-16-16-16-16-16-16-16-16-14-14-14-14-13-13-13-13----| 
|---4-4-4-4-4-4-4-4-4-4-4-4-4-4-4-4|--------------------------------------------------| 
|---2-2-2-2-2-2-2-2-2-2-2-2-2-2-2-2|-14-14-14-14-14-14-14-14-12-12-12-12-11-11-11-11--| 
|------------------------------------------|------------------------------------------| 

INTERLUDE: 

|-------------|-------------|--------------|----------------|-------------| 
|-------------|-------------|--------------|----------------|-------------| 
|-------------|-------------|--------------|----------------|-------------| 
|--4--4-4---4-|--4--4-4---4-|---4--4---4-4-|--4-4---4-4---4-|--4--4-4---4-| 
|--4--4-4---4-|--4--4-4---4-|---4--4---4-4-|--4-4---4-4---4-|--4--4-4---4-| 
|--2--2-2---2-|--2--2-2---2-|---2--2---2-2-|--2-2---2-2---2-|--2--2-2---2-| 
P.M???????????????????????????? 

|-------------|---------------|-------------|-------------|--------------| 
|-------------|---------------|-------------|-------------|--------------| 
|-------------|---------------|-------------|-------------|--------------| 
|--4--4---4-4-|--4-4--4-4---4-|--4--4-4---4-|--4--4---4-4-|-4-4--4-4---4-| 
|--4--4---4-4-|--4-4--4-4---4-|--4--4-4---4-|--4--4---4-4-|-4-4--4-4---4-| 
|--2--2---2-2-|--2-2--2-2---2-|--2--2-2---2-|--2--2---2-2-|-2-2--2-2---2-| 
P.M???????????????????????????? 

|-------------------------------| 
|-------------------------------| 
|-------------------------------| 
|--4----------------------------| 
|--4-----------4-4-4-4-4-4-4-4--| 
|--2-----------2-2-2-2-2-2-2-2--| 
                P.M?????? 

This is where the guitars play completely different parts, although in the song they  
both play differently but it sounds the same. 

Guitar one 
|------|------|------|------|------|------|--0---| 
|------|------|------|------|--3---|--3---|--0---| 
|--2---|--2---|--1---|--1---|--2---|--2---|--4---| 
|--4---|--4---|--2---|--2---|--4---|--4---|--4---| 
|--4---|--4---|--2---|--2---|--5---|--5---|--2---| 
|--2---|--2---|--0---|--0---|------|------|------| 

|---------------------------------| 
|---------------------------------| 
|-2-2-2-2-2-2-2-2-2-2-2-2-2-2-2-2-| 
|-4-4-4-4-4-4-4-4-4-4-4-4-4-4-4-4-| (2x)
|-4-4-4-4-4-4-4-4-4-4-4-4-4-4-4-4-| 
|-2-2-2-2-2-2-2-2-2-2-2-2-2-2-2-2-| 


|---------------------------------| 
|---------------------------------| 
|-1-1-1-1-1-1-1-1-1-1-1-1-1-1-1-1-| 
|-2-2-2-2-2-2-2-2-2-2-2-2-2-2-2-2-| (2x) 
|-2-2-2-2-2-2-2-2-2-2-2-2-2-2-2-2-| 
|-0-0-0-0-0-0-0-0-0-0-0-0-0-0-0-0-| 

|---------------------------------| 
|-3-3-3-3-3-3-3-3-3-3-3-3-3-3-3-3-| 
|-2-2-2-2-2-2-2-2-2-2-2-2-2-2-2-2-| 
|-4-4-4-4-4-4-4-4-4-4-4-4-4-4-4-4-| (2x) 
|-5-5-5-5-5-5-5-5-5-5-5-5-5-5-5-5-| 
|---------------------------------| 

|-0-0-0-0-0-0-0-0-0-0-0-0-0-0-0-0-| 
|-0-0-0-0-0-0-0-0-0-0-0-0-0-0-0-0-| 
|-4-4-4-4-4-4-4-4-4-4-4-4-4-4-4-4-| 
|-4-4-4-4-4-4-4-4-4-4-4-4-4-4-4-4-| (2x) 
|-2-2-2-2-2-2-2-2-2-2-2-2-2-2-2-2-| 
|---------------------------------| 
 
		  

auto scroll beats size up size down change color hide chords drawings
tab show chords e-chords YouTube Clip e-chords hide all tabs e-chords go to top tab

share