Antiskeptic

1:40

Antiskeptic

tabs

save to print version add songbook text version e-mail correct tuner
chordsukulelecavacokeyboardtabbassdrumsharmonicaflute Guitar Pro
close

there isn't a video lesson for this song

chords

1:40

	  		Tab by DougyB, guitarist for " I Deny" - [email protected] 
 
again, i dont promise this is 100% but its very close 
 
 
This is a very easy and short song, i hope you can figure out what goes where 
 
     C     F     A    A#     F  
-------------------------------------------------- 
-------------------------------------------------- 
-----5-------------------------------------------- 
--xx-5-----3-----7----8------3-------------------- 
--xx-3-----3-----7----8-x----3-------------------- 
-----------1-----5----6-x----1-------------------- 
 
if my happy... 
 
 
   A     F     C    Baug5th - im not too sure on this chord, it may be  
----------------------------------------------  something else but this sounds good 
---------------------------------------------- 
---------------5----4------------------------- 
---7-----3-----5----5------------------------- 
---7-----3-----3----2---3--------------------- 
---5-----1--------------1pm------------------- 
 
and im feeling.... 
 
 

		  

Full key step upFull key step up
Half key step upHalf key step up
Half key step downHalf key step down
Full key step downFull key step down
hide glossary

See also:

tabs Clare Bowditch - Autumn Bone tabs Joss Stone - Tell Me What We Are Gonna do Now tabs Hillsong Music Australia - Breathe on me tabs INXS - I Need You Tonight tabs The Atlantics - Bombora tabs INXS - New Sensation
e-chords

Other versions:

tabs Mamonas Assassinas - 1406 tabs Mamonas Assassinas - 1406 (ver. 2) tabs Antiskeptic - 1:40
auto scroll beats size up size down change color hide chords drawings
tab show chords e-chords YouTube Clip e-chords hide all tabs e-chords go to top tab

share