Antiseen

Star Whore

Antiseen

tabs

by  ALEFFEDERICO

save to print version add songbook text version e-mail correct tuner
chordsukulelecavacokeyboardtabbassdrumsharmonicaflute Guitar Pro
close

there isn't a video lesson for this song

chords

Star Whore

	  		
Intro    
                                             
E-----------------------------------------------------| 
B-----------------------------------------------------| 
G-----------7----------7--------------7----------7----| 
D-9-9-9-9-7-7--9-9-9-9-7-7--9-9-9-9-7-7--9-9-9-9-7-7--|  x2 
A-9-9-9-9-7-5--9-9-9-9-5-7--9-9-9-9-7-5--9-9-9-9-5-7--| 
E-7-7-7-7-5----7-7-7-7---5--7-7-7-7-5----7-7-7-7---5--| 


Verse    
                                             
E-----------------------------------------------------| 
B-----------------------------------------------------| 
G-----------7----------7--------------7----------7----| 
D-9-9-9-9-7-7--9-9-9-9-7-7--9-9-9-9-7-7--9-9-9-9-7-7--|  x4 
A-9-9-9-9-7-5--9-9-9-9-5-7--9-9-9-9-7-5--9-9-9-9-5-7--| 
E-7-7-7-7-5----7-7-7-7---5--7-7-7-7-5----7-7-7-7---5--| 


Chorus    
                                                            
E---------------------------------------------------------------------| 
B---------------------------------------------------------------------| 
G---------------------------------------------------------------------| 
D-9----------------7----------------5----------------7----------------|  x2 
A-9----------------7----------------5----------------7----------------| 
E-7----------------5----------------3----------------5----------------| 


After first Chorus 

E-----------------------------------------------------------------| 
B-----------------------------------------------------------------| 
G-----------------------------------------------------------------| 
D-9-9-9-9-9-9-9-9-9-9-9-9-9-9-9-9-9-9-9-9-9-9-9-9-9-9-9-9-9-9-9-9-| 
A-9-9-9-9-9-9-9-9-9-9-9-9-9-9-9-9-9-9-9-9-9-9-9-9-9-9-9-9-9-9-9-9-| 
E-7-7-7-7-7-7-7-7-7-7-7-7-7-7-7-7-7-7-7-7-7-7-7-7-7-7-7-7-7-7-7-7-| 


Verse      
                                           
E-----------------------------------------------------| 
B-----------------------------------------------------| 
G-----------7----------7--------------7----------7----| 
D-9-9-9-9-7-7--9-9-9-9-7-7--9-9-9-9-7-7--9-9-9-9-7-7--|  x5 
A-9-9-9-9-7-5--9-9-9-9-5-7--9-9-9-9-7-5--9-9-9-9-5-7--| 
E-7-7-7-7-5----7-7-7-7---5--7-7-7-7-5----7-7-7-7---5--| 


Chorus         
                                                       
E---------------------------------------------------------------------| 
B---------------------------------------------------------------------| 
G---------------------------------------------------------------------| 
D-9----------------7----------------5----------------7----------------|  x2 
A-9----------------7----------------5----------------7----------------| 
E-7----------------5----------------3----------------5----------------| 


Outro 

E-----------------------------------------------------|--------| 
B-----------------------------------------------------|--------| 
G-----------7----------7--------------7----------7----|--------| 
D-9-9-9-9-7-7--9-9-9-9-7-7--9-9-9-9-7-7--9-9-9-9-7-7--|-9------| 
A-9-9-9-9-7-5--9-9-9-9-5-7--9-9-9-9-7-5--9-9-9-9-5-7--|-9------| 
E-7-7-7-7-5----7-7-7-7---5--7-7-7-7-5----7-7-7-7---5--|-7------| 
		  

See also:

tabs Deep Purple - Black Night tabs Deep Purple - Soldier Of Fortune tabs Deep Purple - Demon's Eye tabs Ira! - Envelheço na Cidade tabs Deep Purple - Smoke on the Water (correct) tabs Ira! - Tarde Vazia (Acústico)
e-chords

Other versions:

tabs Antiseen - Star Whore
auto scroll beats size up size down change color hide chords drawings
tab show chords e-chords YouTube Clip e-chords hide all tabs e-chords go to top tab

share