Antiseen

Ivory Towers

Antiseen

tabs

by  EDUCASTILHO

save to print version add songbook text version e-mail correct tuner
chordsukulelecavacokeyboardtabbassdrumsharmonicaflute Guitar Pro
close

there isn't a video lesson for this song

chords

Ivory Towers

	  		Verse 
E--------------------------| 
B--------------------------| 
G--------------------------| 
D-5--7--5---------5--7--9--| 
A-5--7--5--x-x-x--5--7--9--| 
E-3--5--3--x-x-x--3--5--7--| 

PreChorus 
E--------------------------| 
B--------------------------| 
G-6-6-6--6-6-6--6-6-6--9---| 
D-6-6-6--6-6-6--6-6-6--9-9-| 
A-4-4-4--4-4-4--4-4-4--7-9-| 
E------------------------7-| 

Chorus 
E---------------------------| 
B---------------------------| 
G-6-6-6--9-9-9--------------| 
D-6-6-6--9-9-9--9-9-9-9-9-9-| 
A-4-4-4--7-7-7--9-9-9-9-9-9-| 
E---------------7-7-7-7-7-7-| 
		  

auto scroll beats size up size down change color hide chords drawings
tab show chords e-chords YouTube Clip e-chords hide all tabs e-chords go to top tab

share