Antiseen

Cactus Jack

Antiseen

tabs

by  LINEKERS

save to print version add songbook text version e-mail correct tuner
chordsukulelecavacokeyboardtabbassdrumsharmonicaflute Guitar Pro
close

there isn't a video lesson for this song

chords

Cactus Jack

	  		Intro 
G--------------------------| 
D------9-------------------| 
A------9-------------------| 
E------7-------------------| 


Verse 
E----------------------------------------------------------------------| 
B----------------------------------------------------------------------| 
G----------------------------------------------------------------------| 
D-9-7-9--9-7-9--9-7-9--9-7-9--9-7-9--9-7-9--9-7-9--9-7-9--9-7-9--9-7-9-| 
A-9-7-9--9-7-9--9-7-9--9-7-9--9-7-9--9-7-9--9-7-9--9-7-9--9-7-9--9-7-9-| 
E-7-5-7--7-5-7--7-5-7--7-5-7--7-5-7--7-5-7--7-5-7--7-5-7--7-5-7--7-5-7-| 

E--------------------------------------------------------| 
B--------------------------------------------------------| 
G--9-7-9--9-7-9--9-7-9--9-7-9----------------------------| 
D--9-7-9--9-7-9--9-7-9--9-7-9-9-7-9--9-7-9--9-7-9--9-7-9-| 
A--7-5-7--7-5-7--7-5-7--7-5-7-9-7-9--9-7-9--9-7-9--9-7-9-| 
E-----------------------------7-5-7--7-5-7--7-5-7--7-5-7-| 


Chorus 
E-------------------| 
B-------------------| 
G-11-------9--------| 
D-11-------9--------| 
A-9--------7--------| 
E-------------------| 


Order: 
Intro 
Verse 
Chorus 
Verse 
Chorus 
		  

See also:

tabs Deep Purple - Black Night tabs Deep Purple - Soldier Of Fortune tabs Deep Purple - Demon's Eye tabs Ira! - Envelheço na Cidade tabs Deep Purple - Smoke on the Water (correct) tabs Ira! - Tarde Vazia (Acústico)
e-chords

Other versions:

tabs Antiseen - Cactus Jack
auto scroll beats size up size down change color hide chords drawings
tab show chords e-chords YouTube Clip e-chords hide all tabs e-chords go to top tab

share