Antiseen

Backlash

Antiseen

tabs

by  ADALGOMES

save to print version add songbook text version e-mail correct tuner
chordsukulelecavacokeyboardtabbassdrumsharmonicaflute Guitar Pro
close

there isn't a video lesson for this song

chords

Backlash

	  		
Intro 
E---------------------------------|-------------------------------------------------| 
B---------------------------------|-------------------------------------------------| 
G---------------------------------|-------3-3-3-------------------3-3-3-------------| 
D-5-5-----5-5-----5-5-----5-5-----|-5-5-5-3-3-3-5-5-5-3-3-3-5-5-5-3-3-3-5-5-5-3-3-3-| 
A-5-5-----5-5-----5-5-----5-5-----|-5-5-5-1-1-1-5-5-5-3-3-3-5-5-5-1-1-1-5-5-5-3-3-3-| 
E-3-3-----3-3-----3-3-----3-3-----|-3-3-3-------3-3-3-1-1-1-3-3-3-------3-3-3-1-1-1-| 


Verse 
E-------------------------------------|-------------------------------------| 
B-------------------------------------|-------------------------------------| 
G-------------3-3-3-------------------|-------------3-3-3-------------------| 
D-5-5-----5-5-3-3-3-5-5-----5-5-3-3-3-|-5-5-----5-5-3-3-3-5-5-----5-5-3-3-3-| 
A-5-5-----5-5-1-1-1-5-5-----5-5-3-3-3-|-5-5-----5-5-1-1-1-5-5-----5-5-3-3-3-| 
E-3-3-----3-3-------3-3-----3-3-1-1-1-|-3-3-----3-3-------3-3-----3-3-1-1-1-| 


Pre-Chorus ("You run my name...") 
E-------------------------|-------------------------|-------------------------|-------------------------| 
B-------------------------|-------------------------|-------------------------|-------------------------| 
G-------3-3-3-------5-5-5-|-------3-3-3-------5-5-5-|-------3-3-3-------5-5-5-|-------3-3-3-------5-5-5-| 
D-5-5-5-3-3-3-3-3-3-5-5-5-|-5-5-5-3-3-3-3-3-3-5-5-5-|-5-5-5-3-3-3-3-3-3-5-5-5-|-5-5-5-3-3-3-3-3-3-5-5-5-| 
A-5-5-5-1-1-1-3-3-3-3-3-3-|-5-5-5-1-1-1-3-3-3-3-3-3-|-5-5-5-1-1-1-3-3-3-3-3-3-|-5-5-5-1-1-1-3-3-3-3-3-3-| 
E-3-3-3-------1-1-1-------|-3-3-3-------1-1-1-------|-3-3-3-------1-1-1-------|-3-3-3-------1-1-1-------| 


Chorus ("Backlash!") 
E---------------------------------------------------------| 
B---------------------------------------------------------| 
G---------------3-3-3-------------------3-3-3-------------| 
D-5-5-----5-5-5-3-3-3-5-5-5-3-3-3-5-5-5-3-3-3-5-5-5-3-3-3-| 
A-5-5-----5-5-5-1-1-1-5-5-5-3-3-3-5-5-5-1-1-1-5-5-5-3-3-3-| 
E-3-3-----3-3-3-------3-3-3-1-1-1-3-3-3-------3-3-3-1-1-1-| 


Verse 
E-------------------------------------|-------------------------------------| 
B-------------------------------------|-------------------------------------| 
G-------------3-3-3-------------------|-------------3-3-3-------------------| 
D-5-5-----5-5-3-3-3-5-5-----5-5-3-3-3-|-5-5-----5-5-3-3-3-5-5-----5-5-3-3-3-| 
A-5-5-----5-5-1-1-1-5-5-----5-5-3-3-3-|-5-5-----5-5-1-1-1-5-5-----5-5-3-3-3-| 
E-3-3-----3-3-------3-3-----3-3-1-1-1-|-3-3-----3-3-------3-3-----3-3-1-1-1-| 


Pre-Chorus ("You run my name...") 
E-------------------------|-------------------------|-------------------------|-------------------------| 
B-------------------------|-------------------------|-------------------------|-------------------------| 
G-------3-3-3-------5-5-5-|-------3-3-3-------5-5-5-|-------3-3-3-------5-5-5-|-------3-3-3-------5-5-5-| 
D-5-5-5-3-3-3-3-3-3-5-5-5-|-5-5-5-3-3-3-3-3-3-5-5-5-|-5-5-5-3-3-3-3-3-3-5-5-5-|-5-5-5-3-3-3-3-3-3-5-5-5-| 
A-5-5-5-1-1-1-3-3-3-3-3-3-|-5-5-5-1-1-1-3-3-3-3-3-3-|-5-5-5-1-1-1-3-3-3-3-3-3-|-5-5-5-1-1-1-3-3-3-3-3-3-| 
E-3-3-3-------1-1-1-------|-3-3-3-------1-1-1-------|-3-3-3-------1-1-1-------|-3-3-3-------1-1-1-------| 


Chorus ("Backlash!") 
E---------------------------------------------------------| 
B---------------------------------------------------------| 
G---------------3-3-3-------------------3-3-3-------------| 
D-5-5-----5-5-5-3-3-3-5-5-5-3-3-3-5-5-5-3-3-3-5-5-5-3-3-3-| 
A-5-5-----5-5-5-1-1-1-5-5-5-3-3-3-5-5-5-1-1-1-5-5-5-3-3-3-| 
E-3-3-----3-3-3-------3-3-3-1-1-1-3-3-3-------3-3-3-1-1-1-| 


Bridge  ("I run your name")                                     x2 
E-----------------------------------------------------------------| 
B-----------------------------------------------------------------| 
G-----------------------------------------------------------------| 
D-5-5-----5-5-----5-5-----5-5-----5-5-----5-5-----5-5-----5-5-----| 
A-5-5-----5-5-----5-5-----5-5-----5-5-----5-5-----5-5-----5-5-----| 
E-3-3-----3-3-----3-3-----3-3-----3-3-----3-3-----3-3-----3-3-----| 


E-------------------------------------------------|-------------------------------------------------| 
B-------------------------------------------------|-------------------------------------------------| 
G-------3-3-3-------------------3-3-3-------------|-------3-3-3-------------------3-3-3-------------| 
D-5-5-5-3-3-3-5-5-5-3-3-3-5-5-5-3-3-3-5-5-5-3-3-3-|-5-5-5-3-3-3-5-5-5-3-3-3-5-5-5-3-3-3-5-5-5-3-3-3-| 
A-5-5-5-1-1-1-5-5-5-3-3-3-5-5-5-1-1-1-5-5-5-3-3-3-|-5-5-5-1-1-1-5-5-5-3-3-3-5-5-5-1-1-1-5-5-5-3-3-3-| 
E-3-3-3-------3-3-3-1-1-1-3-3-3-------3-3-3-1-1-1-|-3-3-3-------3-3-3-1-1-1-3-3-3-------3-3-3-1-1-1-| 


Outro 
E---------------------------------------------------------------------|---------| 
B---------------------------------------------------------------------|---------| 
G-------------------------5-5-5-5----3-3-3-3--------------------------|---------| 
D-5-5--------3-3-3-3-3----5-5-5-5----3-3-3-3--5-5-5-5-5---------------|-5-5-----| 
A-5-5--------3-3-3-3-3----3-3-3-3----1-1-1-1--5-5-5-5-5---------------|-5-5-----| 
E-3-3--------1-1-1-1-1------------------------3-3-3-3-3---------------|-3-3-----| 


That's the whole song, in order too 
		  

See also:

tabs Deep Purple - Black Night tabs Deep Purple - Soldier Of Fortune tabs Deep Purple - Demon's Eye tabs Ira! - Envelheço na Cidade tabs Deep Purple - Smoke on the Water (correct) tabs Ira! - Tarde Vazia (Acústico)
e-chords

Other versions:

tabs 10 Years - Backlash tabs Antiseen - Backlash
auto scroll beats size up size down change color hide chords drawings
tab show chords e-chords YouTube Clip e-chords hide all tabs e-chords go to top tab

share