Another Race

Wake In Anger

Another Race

tabs

save to print version add songbook text version e-mail correct tuner
chordsukulelecavacokeyboardtabbassdrumsharmonicaflute Guitar Pro
close

there isn't a video lesson for this song

chords

Wake In Anger

	  		Transcription by -HMJ. [email protected] 
 
----Hope this helps. pretty mad song, especially when you have to  
think how it has to be played.---- As always let your ears be the guide. 
 
Intro (riff 1) 
 
E------------------------| 
B------------------------| 
G------------------5555--| 
D--1p0-1p0-1p0-1p0-5555--| 
A--1p0-1p0-1p0-1p0-3333--| 
D--1p0-1p0-1p0-1p0-------| X 3 
 
E------------------------| 
B------------------------| 
G------------------------| 
D--1p0-1p0-1p0-1p0-------| 
A--1p0-1p0-1p0-1p0-------| 
D--1p0-1p0-1p0-1p0-------| 
 
Verse 
 
riff (2) 
Bass 
 
   s  s s s p   p        (s=slap, p=pop) 
G---------------1h2-| 
D-----------2h3-----| 
A-------------------| 
D--0--0-0-0---------| x 3 
 
Guitar 
E-------------------| 
B-------------------| 
G-------------------| 
D-------------------| 
A-----------2/3-6/7-| 
D--0--0-0-0-2/3-6/7-| x3 
 
then 
 
Bass         p p p  
G------------------ 
D------------0-0-0- 
A------------------ 
D--0--0-0-0-------- 
 
Guitar 
E-----------|------| 
B-----------|------| 
G-----------|------| 
D-----------|------| 
A-----------|------| 
D--0--0-0-0-|(Rest while bass pops) 
 
Verse (Riff 2) 
Chorus (Riff 1) 
Verse (Riff 2) 
Chorus  
 
Middle part 1 (let me wake in anger) 
 
 
E--------|--------|---------|--------| 
B--------|--------|---------|--------| 
G--------|--------|---------|--------| 
D--------|--------|---------|--------| 
A-----0--|----0---|------0--|----00--| 
D-0--0--1|-11---0-|-0--0---1|-11----1| 
 
 
E--------|--------|---------|---------| 
B--------|--------|---------|---------| 
G--------|--------|---------|---------| 
D--------|--------|---------|---------| 
A-----0--|----0---|------0--|----00-1-| 
D-0--0--1|-11---0-|-0--0---1|-11------| 
 
Middle Part 2 (so, so, so, so real) 
E--------|--------|---------|--------| 
B--------|--------|---------|--------| 
G--------|--------|---------|--------| 
D-----2--|---2----|---2-----|----2---| 
A-0-0-0-1|-1-0-0--|-0-0-1---|-11-0--1| 
D-0-0---1|-1---0--|-0---1---|-11----1| 
 
E--------|--------|---------|--------| 
B--------|--------|---------|--------| 
G--------|--------|---------|--------| 
D-----2--|---2----|---2-----|----2--3| 
A-0-0-0-1|-1-0-0--|-0-0-1---|-11-0--1| 
D-0-0---1|-1---0--|-0---1---|-11-----| 
 
 
Middle part 3 (it's so sureal) 
*basically riffing around the chords of d and B flat* 
E-----|-------| 
B-----|-------| 
G-----|---33--| 
D---0-|--3--3-| 
A--0--|-1-----| 
D-0---|-------| 
 
***when Wesz starts singing, chris does some crazy riffing that i can't make out off the  
recording. play around d and B flat** (anyone want to help????) 
 
chorus Riff 1 
verse Riff 2 
chorus riff 1 
end. 
 
 
 

		  

Full key step upFull key step up
Half key step upHalf key step up
Half key step downHalf key step down
Full key step downFull key step down
hide glossary

See also:

tabs Beaverloop - Condesending tabs Baby Animals - One Word tabs The Beautiful Girls - Morning Sun tabs Hillsong Music Australia - jesus I long tabs Hillsong Music Australia - Song of Freedom tabs INXS - Need you tonight
e-chords

Other versions:

tabs Another Race - Wake In Anger
auto scroll beats size up size down change color hide chords drawings
tab show chords e-chords YouTube Clip e-chords hide all tabs e-chords go to top tab

share