Another Race

Falldown

Another Race

tabs

save to print version add songbook text version e-mail correct tuner
chordsukulelecavacokeyboardtabbassdrumsharmonicaflute Guitar Pro
close

there isn't a video lesson for this song

chords

Falldown

	  		Falldown - AnotherRace  
**Best Viewed in Notepad maximised with word wrap on. 
 
Transcription by Heavy Metal Jim ([email protected]) 
This is my interperetation of the song Falldown by AnotherRace,  
From the Processor (ep).  
****It's Been FIXED since you last read this****** 
 
Drop-D Tuning.  Low to high :(DADGBE) 
 
Intro -harmonics played on twelve fret like so.  
G---------------7--(7-7-7) 
D-7-(7-7-7)---------------  
with delay - brackets indicates notes produced by delay. 
 
Bass Part 
G-----------------| 
D---------7h8-7-5-| 
A-56---7----------| 
D----7------------| 
(or the equivilent an octave higher) 
 
Whats the sence.... 
E----------------| 
A----------------| 
G-----77-3-3-3---| 
D-----xx-x-x-x---| 
A-----55-1-1-1---| 
D--00------------| x3 
 
E----------------| 
A----------------| 
G-----77-33-5----| 
D-----xx-xx-x----| 
A-----55-11-3----| 
D--00------------| x1 
 
Verse - with volume swells first 4x, some other part (when i work it out u will be the  
first to know chief) second 4x, and of course overdrive 
 
E-----------|------------|---------|----------| 
A-----------|------------|---------|----------| 
G--------7--|------------|-------7-|-------8--| 
D--7-8-5----|--7-8-5-0---|-7-8-5---|---7-8----| 
A-----------|------------|---------|----------| 
D-----------|------------|---------|----------| 
 
End bit - after sequence (whats the damage...) 
 
E-------------------------| 
A-------------------------| 
G-------------------------| 
D-------------------------| 
A-------------------------| 
D--0-00-011-001-000-1/10--| 
 
(nnnnnnnow..) - same riff sorta, just add a few mutes and take out  
a few notes. 
 
Just listen to the track - you'll be fine. 
 

		  

See also:

tabs INXS - Dont change tabs Australian Crawl - Things Don't Seem tabs The Beautiful Girls - Freedom (part 2) tabs Hillsong Music Australia - In the Mystery tabs Gerling - The Deer In You tabs Boom Crash Opera - Onion Skin
e-chords

Other versions:

tabs Another Race - Falldown
auto scroll beats size up size down change color hide chords drawings
tab show chords e-chords YouTube Clip e-chords hide all tabs e-chords go to top tab

share