Another Race

Monkey Boy

Another Race

tabs

save to print version add songbook text version e-mail correct tuner
chordsukulelecavacokeyboardtabbassdrumsharmonicaflute Guitar Pro
close

there isn't a video lesson for this song

chords

Monkey Boy

	  		**Best Viewed in Notepad maximised with word wrap on. 
By Heavy Metal Jim - [email protected] 
 
I think this tab is good. But I have a feeling as I did it a few months ago that there  
might be something wrong. All Yours. 
Trivia: Has been re-recorded for their new debut album. 
 
Timing: You work it out, i tried to make the fast bits easier for u to work out though.  
As always YOUR ears should be the best guide 
 
Tuning: 
"It's in Drop-C for all you metal heads, for all you nu-metal heads"  
Low to high (C G C F A D ) 
 
Intro 
D--Feedback over drum beat in the key of C 
A-- 
F-- 
C-- 
G-- 
C-- 
 
D---------- 
A---------- 
F--77777777 
C--77777777 x ... 
G--55555555 
C---------- 
 
Gtr 2(when Matt starts hitting the snare) 
D-------------- 
A-------------- 
F--14-----13--- 
C-------------- 
G-------------- 
C-------------- 
 
at same time as above (gtr 1) sounds like it goes augmented but not sure, if you think so play this 
D------- 
A------- 
F--666-- 
C--666-- 
G--555-- etc 
C------- 
 
D-- 
A-- 
F-- 
C--0-0-00- 
G--0-0-00- 
C--0-0-00- x .... 
 
Verse: 
 
D----------------|---------------|---------------|-------------------| 
A----------------|---------------|---------------|-------------------| 
F--------2-----2-|---2h3-2-----2-|-------2-----2-|-------------------| 
C--0-2h3---2h3---|-0-------2h3---|-0-2h3---2h3---|-0-2h3-2-3p2-------| 
G----------------|---------------|---------------|-------------3-2-3-| 
C----------------|---------------|---------------|-------------------| x.. 
 
Chorus 
 
D----------------------------| 
A----------------------------| 
F--------7777----------------| 
C--00000-7777-3p0-----6-3----| 
G--00000-5555-----2h3------5-| 
C--00000---------------------| 
 
Bridge 
 
D------------------------------------------| 
A------------------------------------------| 
F------------------------------------7---0-| 
C------------------------------------7---0-| 
G--0-3h5-0-5h7-0-3h5-0-5h7-0-3h5-0-5-5-3-0-| 
C--0-3h5-0-5h7-0-3h5-0-5h7-0-3h5-0-5---3-0-| 
 
 
D-------------- 
A-----------15- 
F--10-12-13---- 
C-------------- 
G-------------- 
C-------------- 
(Gtr 2 over the 'Business man in disguise' part) 
 
D-------------------------------| 
A-------------------------------| 
F---------7---7----777----777---| 
C---------7---7----777----777---| 
G---------5---5----555----555---| 
C--0-00000--00--00-----00-------| 
 
D------------------------------------------| 
A------------------------------------------| 
F------------------------------------7---0-| 
C------------------------------------7---0-| 
G--0-3h5-0-5h7-0-3h5-0-5h7-0-3h5-0-5-5-3-0-| 
C--0-3h5-0-5h7-0-3h5-0-5h7-0-3h5-0-5---3-0-| 
 
Outro 
D--------| 
A--------| 
F--------| 
C--0-0-00| 
G--0-0-00| 
C--0-0-00| 
 
 
 

		  

Full key step upFull key step up
Half key step upHalf key step up
Half key step downHalf key step down
Full key step downFull key step down
hide glossary

See also:

tabs The Beautiful Girls - Blackbird tabs Joss Stone - Super Duper Love tabs INXS - Heaven Sent tabs Beaverloop - Funkywrench tabs Blackman Bertie - Favourite Jeans tabs Baby Animals - Don't Tell Me What To Do
e-chords

Other versions:

tabs Another Race - Monkey Boy
auto scroll beats size up size down change color hide chords drawings
tab show chords e-chords YouTube Clip e-chords hide all tabs e-chords go to top tab

share