Alice in Chains

Them Bones(Guitar Solo)

Alice in Chains

tabs Intermediate intermediate

by  GRUNGE BOY

save to print version add songbook text version e-mail correct tuner
chordsukulelecavacokeyboardtabbassdrumsharmonicaflute Guitar Pro
close

there isn't a video lesson for this song

chords

Them Bones(Guitar Solo)

	  		  S  S  S  S S  S  S  S  S  S  S  S  S  S    E   S  E    S E    S S  S  S  S  S S 
|------------------------------------------|---------------------------------------| 
|------------------------------------------|---------------------------------------| 
|------------------------------------------|-------------------------------10------| 
|------------------------------------------|-------------------------------10-10---| 
|--8----------8----------10-------11-------|-10-<10>-8---------------10s12---------| 
|----10-10-10---10-10-10----10-10----10-10-|-------------10-8---10-8---------------| 
 
 
 
   E      a       +Q.            +Q         +S   S 
|--------------------------------------------------| 
|--------------------------------------------------| 
|-12b14r(12)b14==(14)-----------(14)-------(14)r12-| 
|--------------------------------------------------| 
|--------------------------------------------------| 
|--------------------------------------------------| 
 
 
 
                 ~~ 
                                        |------3-------| 
   S     +S   S  S  T  T  T  T  S  T T  S      +S     +S   +S  S S S 
|--------------------------------------------------------------------| 
|--------------------------------------------------------------------| 
|-12b14r(12)p10------------------------------------------------------| 
|---------------12-10h12p10------------------------------------------| 
|---------------------------12p10-10p8-12b14==(14)r==(12)-(12)p8-8---| 
|--------------------------------------------------------------------| 
 
 
 
   ~~~           ~~~~~~~~~ 
   E.   S  S  S  E    +S   S  S  S  S  S 
|----------------------------------------| 
|---------13-13-13---(13)-11-10h11p10----| 
|--9----9-----------------------------10-| 
|----------------------------------------| 
|----------------------------------------| 
|----------------------------------------| 
 
 
 
   ~~~~~~~~~~~                            ~~~ 
   Q      +S  S  S  S  S  S S  S  S  S    Q.          S  S  S      +S    S  S  S  S 
|--------------------------------------|--------------------------------------------| 
|--------------------------------10h11p|=10----------10-11-13b15==(15)r-13-11-13-11-| 
|---------------------------9-10-------|--------------------------------------------| 
|-12-----(12)---------10-12------------|--------------------------------------------| 
|-------------8-10-12------------------|--------------------------------------------| 
|--------------------------------------|--------------------------------------------| 
 
 
 
   ~~~ 
   Q.         S  S  a     +Q. 
|-----------------------------------------|| 
|-10----------8-10-10b13-(13)-------------|| 
|-----------------------------------------|| 
|-----------------------------------------|| 
|-----------------------------------------|| 
|-----------------------------------------|| 
 
 
 
 4/4 
                                             ~~~ 
   E     S  S  S  S  S  S      +E.      +S   Q 
|-15b16-15-13----13---------------------------------| 
|-------------15----15-15b17==(17)r====(15)-15------| 
|---------------------------------------------------| 
|---------------------------------------------------| 
|---------------------------------------------------| 
|---------------------------------------------------| 
| 
|  E     E     S  S  S  S      +S  S E       S  S E 
|---------------------------------------------------| 
|---------------------------------------------------| 
|---------------------------------------------------| 
|--------------------------------------------9s11-9-| 
|--8-----8-----8--8--8--7------(7)-7-7--------------| 
|--8-----8-----8--8--8--7------(7)-7-7--------------| 
 
 
                                                 ~~~ 
   E     S  S  S  S  S  S      +S    S  S  S  S  E. 
|-20b22-20-18-17----17--------------------------------|| 
|----------------20----20b22==(22)r-20-18----18-------|| 
|-----------------------------------------19----19----|| 
|-----------------------------------------------------|| 
|-----------------------------------------------------|| 
|-----------------------------------------------------|| 
| 
|  E     E     S  S  S  S      +S    S  S  S  S  S  E 
|-----------------------------------------------------|| 
|-----------------------------------------------------|| 
|-----------------------------------------------------|| 
|-----------------------------------------------------|| 
|-10----10----10-10-10--9------(9)---9--9--9--9--8----|| 
|-10----10----10-10-10--9------(9)---9--9--9--9--8----|| 
 
 
 7/8 
w/Rhy Fig 1 
   T  T  T  T  T  T  T  T  T  T  T  T  T  T  T  T  T  T  T  T  T  T  T  T  T  T  T  T 
|-------------------------------------------------------------------------------------| 
|-18h20p18----18h20p18----18h20p18----18h20p18----18h20p18----18h20p18----18h20p18----| 
|----------19----------19----------19----------19----------19----------19----------19-| 
|-------------------------------------------------------------------------------------| 
|-------------------------------------------------------------------------------------| 
|-------------------------------------------------------------------------------------| 
 
 
 
                     ~~~~~~~~~ 
   E     S  S  S  S  E    +Q        E 
|---------------------------------------| 
|-20b22-20-18----18---------------------| 
|-------------19----19---(19)-----------| 
|---------------------------------------| 
|---------------------------------------| 
|---------------------------------------| 
 
 
 
                         \1/   \1/   \1/   \1/   \1/ 
   S  E.         +E     +S    +S    +S    +S    +S    S      +S   S 
|-------------------------------------------------------------------| 
|-------------------------------------------------------------------| 
|----12b14======(14)---(14)--(14)--(14)--(14)--(14)r-12pb14r(12)----| 
|----------------------------------------------------------------12-| 
|-------------------------------------------------------------------| 
|-------------------------------------------------------------------| 
 
 
 
 
   s  S  E    S  S  S  S  S  s  s  S  +E 
|-------------------------------------------|| 
|-------------------------------------------|| 
|-10-10-------------------------------------|| 
|-------12---10h12-12-12-12-10-10-----------|| 
|---------------------------------12-(12)\--|| 
|-------------------------------------------|| 
 
 

		  

Full key step upFull key step up
Half key step upHalf key step up
Half key step downHalf key step down
Full key step downFull key step down
hide glossary

See also:

tabs Pearl Jam - Jeremy (unplugged) tabs Pearl Jam - Even Flow tabs Pearl Jam - Thumbing My Way tabs Nirvana - Polly (ver. 3) tabs Alice in Chains - Nutshell tabs Nirvana - Sappy
e-chords

Other versions:

tabs Alice in Chains - Them Bones tabs Guitar Hero - Them Bones (guitar Hero Ii) tabs Alice in Chains - Them Bones(Guitar Solo)
auto scroll beats size up size down change color hide chords drawings
tab show chords e-chords YouTube Clip e-chords hide all tabs e-chords go to top tab

share