Alex Campos

Que Pasa

Alex Campos

tabs Advanced advanced

by  ROBEPOIEL

save to print version add songbook text version e-mail correct tuner
chordsukulelecavacokeyboardtabbassdrumsharmonicaflute Guitar Pro
close

there isn't a video lesson for this song

chords

Que Pasa

(Alex Campos)

	  		Hola a todos, aquí les mando otra alabanza 
Que esta súper fácil disfrútenla 
Otra cosa, se oye mucho mejor si se toca con 
Uñeta 

INTRO 

CAPO EN EL SEGUNDO TRASTE 

E----------0-------|-----------3-----2-----0------ 
B------1------1----|-------1-----1-----1-----1---- 
G----2---2------2--|-----0---0-----0-----0-----0-- 
D--0---------------|------------------------------ 
A------------------|---3-------------------------- 
E------------------|------------------------------ 

----------2-----3-----2-------|----------3-----2-----0----- 
------1-----1-----1-----1-----|-------1----1-----1-----1--- 
----2---2-----2-----2-----2---|-----0---0-----0-----0----0- 
--0---------------------------|---------------------------- 
------------------------------|---3------------------------ 
------------------------------|---------------------------- 

ESTROFA 1 : 

----------2-----3-----2-------|----------3-----2-----0----- 
------1-----1-----1-----1-----|-------1----1-----1-----1--- 
----2---2-----2-----2-----2---|-----0---0-----0-----0----0- 
--0---------------------------|---------------------------- 
------------------------------|---3------------------------ 
------------------------------|---------------------------- 


----------2-----3-----2-------|----------3-----2-----0----- 
------1-----1-----1-----1-----|-------1----1-----1-----1--- 
----2---2-----2-----2-----2---|-----0---0-----0-----0----0- 
--0---------------------------|---------------------------- 
------------------------------|---3------------------------ 
------------------------------|---------------------------- 

**PUENTE** 
 E7 ? A ? E7 ? A ? D ? A ? D ? A 


ESTROFA 2 : 

----------2-----3-----2-------|----------3-----2-----0----- 
------1-----1-----1-----1-----|-------1----1-----1-----1--- 
----2---2-----2-----2-----2---|-----0---0-----0-----0----0- 
--0---------------------------|---------------------------- 
------------------------------|---3------------------------ 
------------------------------|---------------------------- 


----------2-----3-----2-------|----------3-----2-----0----- 
------1-----1-----1-----1-----|-------1----1-----1-----1--- 
----2---2-----2-----2-----2---|-----0---0-----0-----0----0- 
--0---------------------------|---------------------------- 
------------------------------|---3------------------------ 
------------------------------|---------------------------- 

**PUENTE** 


CORO : 

Nota: aquí solo va un toque por cada término 

    F#m         D            A            E 

----0------|----0------|-----3------|-----2------ 
----0------|----1------|-----3------|-----3------ 
----0------|----0------|-----0------|-----2------ 
----2------|----2------|-----0------|-----0------ 
----2------|----3------|-----2------|------------ 
----0------|-----------|-----3------|------------ 

Nota 2: aquí ya va más rápido 

F#m 
 Que corro que me alcanza 

 que del silencio hay gritos 
D 
 Que el cielo se ha oscurecido 

 Y el padre busca a su niño 
A 
 Tu que estas a mi suspiros 

 De la flor de tu roció 
E 
 Enséñame el camino 
                        F#m 
 Lleva mi barco a tu río 
        D           A           F#m 
 A tu río... a tu río... a tu río 

SOLO DE PIANO 
ESTROFA 
**PUENTE** 

CORO : 


Nota: aquí solo va un toque por cada término 

    F#m         D            A            E 

----0------|----0------|-----3------|-----2------ 
----0------|----1------|-----3------|-----3------ 
----0------|----0------|-----0------|-----2------ 
----2------|----2------|-----0------|-----0------ 
----2------|----3------|-----2------|------------ 
----0------|-----------|-----3------|------------ 

Nota 2: aquí ya va más rápido 

F#m 
 Que corro que me alcanza 

 que del silencio hay gritos 
D 
 Que el cielo se ha oscurecido 

 Y el padre busca a su niño 
A 
 Tu que estas a mi suspiros 

 De la flor de tu roció 
E 
 Enséñame el camino 
                        F#m ? D ? A ? A ? E - E 
 Lleva mi barco a tu río 


F#m 
  Que vuelva , que vuelva 
D 
  Que vuelva , que vuelva 
A 
  Que vuelva , que vuelva 

CORO : 

NOTA : NADA MAS LA PARTE RAPIDA 

F#m 
 Que corro que me alcanza 

 que del silencio hay gritos 
D 
 Que el cielo se ha oscurecido 

 Y el padre busca a su niño 
A 
 Tu que estas a mi suspiros 

 De la flor de tu roció 
E 
 Enséñame el camino 
                        F#m ? D ? A ? A ? E - E 
 Lleva mi barco a tu río 
       F#m 
 A tu río 


Fácil verdad?... bueno que Dios los bendiga 
Y seguiré sacando mas alabanzas para que 
Puedan adorar a nuestro Dios. 
TE AMO MUCHO Kirita 
Si tienen alguna duda mándenme un correo ok 

Acordes con capo en segundo traste 
    E7         A         D         E        F#m 
E---2----   ---3---   ---0---   ---2---   ---0--- 
B---1----   ---3---   ---1---   ---3---   ---0--- 
G---2----   ---0---   ---0---   ---2---   ---0--- 
D---0----   ---0---   ---2---   ---0---   ---2--- 
A--------   ---2---   ---3---   -------   ---2--- 
E--------   ---3---   -------   -------   ---0---
		  

Full key step upFull key step up
Half key step upHalf key step up
Half key step downHalf key step down
Full key step downFull key step down
auto scroll beats size up size down change color hide chords drawings
tab show chords e-chords YouTube Clip e-chords hide all tabs e-chords go to top tab

share