Alan Silvestri

home > Alan Silvestri

A Promise The Avengers Tab

Alan Silvestri

Difficulty: ExpertExpert

by educastilho

tuner correct add songbook print version text version save to e-mail
chordsukulelecavacokeyboardtabbassdrumsharmonicsflute Guitar Pro
chords

A Promise The Avengers

	  

e: --------------------------------------------------------------------| 
B: --------------------------------------0---0---0---0-----------------| 
G: ------0---0---0-------0---0---0-----0---0---0---0---0-0-4-2-----0---| 
D: ----2---2---2---2---2---2---2---2-0-------------------------4-4-----| 
A: --2---------------3-------------------------------------------------| 
E: --------------------------------------------------------------------| 

e: --------------------------------------------------------------------| 
B: --------------------------------------------------------------------| 
G: ------0---0---0-------0---0---0-------0---0---0---0-----------------| 
D: ----2---2---2---2---2---2---2---2---0---0---0---0---0-0-4-2-----0---| 
A: --2---------------3---------------2-------------------------4-4-----| 
E: --------------------------------------------------------------------| 

 
	  

Search Paypal
auto scroll beats size up size down change color hide chords drawings
tab show chords e-chords YouTube Clip e-chords hide all tabs e-chords go to top tab