Alan Jackson

home > Alan Jackson

Drive Tab

Alan Jackson

Difficulty: BeginnerBeginner

by Andy

tuner correct add songbook print version text version save to e-mail
chordsukulelecavacokeyboardtabbassdrumsharmonicsflute Guitar Pro
chords

Drive

Year: 2002 - Album: Very Best of Alan Jackson

  		*********************************************************************** 
 
/   =   slide up                             \   =   slide down 
 
h   =   hammer-on                            br  =   bend & release 
 
*********************************************************************** 
 
 
 
FIRST Chorus (When Daddy let me drive....) 
 
 
E--2--2-2-2-2-2-2--2-2-2---2-0--0-0--0-0-2---2-2-2---------| 
B--0--0-0-0-0-0-0--0-0-0---0-0--0-0--0-0-0h2-2-2-0---------| 
G--4--4-4-4-4-4-3--3-3-3/4-3\1--1-1--1-1----------3--------| 
D--------------------------------------------------4br-----| 
A--------------------------------------------------4br-2---| 
E----------------------------------------------------------| 
 
 
 
SECOND Chorus & THIRD Chorus (When Daddy let me drive....) 
 
 
E--2--2-2-2-2-2-2--2-2-2---2-0--0-0--0-0-2---2-2-2---- 
B--0--0-0-0-0-0-0--0-0-0---0-0--0-0--0-0-0h2-2-2-0---- 
G--4--4-4-4-4-4-3--3-3-3/4-3\1--1-1--1-1----------3--- 
D--------------------------------------------------4-- 
A----------------------------------------------------- 
E----------------------------------------------------- 
 
 
E--2--2-2-2-2-2-2--2-2-2---2-0--0-0--0-0-2---2-2-2--------| 
B--0--0-0-0-0-0-0--0-0-0---0-0--0-0--0-0-0h2-2-2-0--------| 
G--4--4-4-4-4-4-3--3-3-3/4-3\1--1-1--1-1----------3-1-----| 
D----------------------------------------------------4----| 
A-----------------------------------------------------4---| 
E---------------------------------------------------------| 
 

	  

Search Paypal
auto scroll beats size up size down change color hide chords drawings
tab show chords e-chords YouTube Clip e-chords hide all tabs e-chords go to top tab