Alan Jackson

5 O'clock Somewhere

Alan Jackson

tabs Expert expert

by  ANDY

save to print version add songbook text version e-mail correct tuner
chordsukulelecavacokeyboardtabbassdrumsharmonicaflute Guitar Pro
close

there isn't a video lesson for this song

chords

5 O'clock Somewhere

	  		intro: 
 
----------------------------------------------------------- 
----------------------------------------------------------- 
----------------------------------------------------------- 
-0----------/4-4-4p2p0---------/5-------------------------- 
---2p0-----------------2---0h2----------------------------- 
-------3-----------------3--------------------------------- 
 
 
----------------------------------------------------------- 
----------------------------------------------------------- 
-/6-6-6\4-4-4\2-2------------------------------------------ 
-/7-7-7\5-5-5\4-0-----0-----------0------------------------ 
--------------------2---2p0---0h2-------------------------- 
----------------------------2------------------------------ 
 

		  

See also:

tabs Simpsons - Theme tabs Hayseed Dixie - Walk This Way tabs Theme Songs - Mario Bros. tabs Big & Rich - Save A Horse Ride A Cowboy-correct tabs Jerry Reed - Eastbound And Down tabs Hank Williams Jr - Family Tradition
e-chords

Other versions:

tabs Alan Jackson - 5 O'clock Somewhere
auto scroll beats size up size down change color hide chords drawings
tab show chords e-chords YouTube Clip e-chords hide all tabs e-chords go to top tab

share