Agua Bendita

El Señor De Los Anillos

Agua Bendita

tabs Beginner beginner

by  PAULLET3

save to print version add songbook text version e-mail correct tuner
chordsukulelecavacokeyboardtabbassdrumsharmonicaflute Guitar Pro
close

there isn't a video lesson for this song

chords

El Señor De Los Anillos

	  		La verdad es que este es el disco que menos me mola de Agua Bendita, 
pero como la cancion esta y ahora esta de moda lo del anillito este, 
pues ahi va 


Intro:  (con trompetas y toda la pesca) 
------ 
                x2                                                                 
E||---------------| 
B||---------------| 
G||--0------0-----| 
D||--2--3---2--0--| 
A||--3--3---3--2--| 
E||-----1------3--| 

Estrofas:   (ritmo ska) 
--------- 
                                                                             
E||--0-0--1-1--0-0--3-3--| 
B||--1-1--1-1--1-1--3-3--| 
G||--0-0--2-2--0-0--4-4--| 
D||----------------------| 
A||----------------------| 
E||----------------------| 

Estribillo: 
----------- 
                                                                            
E||------------------| 
B||------------------| 
G||--5--------5------| 
D||--5---3----5---5--| 
A||--3---3----3---5--| 
E||------1--------3--| 



Al final de cada estrofa, los ultimos 2 o 3 acordes, se les da dos toques  
secos en vez del tipico ska. P.ej: 
  
E||---0-----0--------1-----1----------0-----0--------3-----3-----------| 
B||---1-----1--------1-----1----------1-----1--------3-----3-----------| 
G||---0-----0--------2-----2----------0-----0--------4-----4-----------| 
D||--------------------------------------------------------------------| 
A||--------------------------------------------------------------------| 
E||--------------------------------------------------------------------| 
    Llegaron a la casa de Elrond y alli encontraron a Gandalf el gris, 

E||-0-0------------1-1---------------0-0--------------3------------------------| 
B||-1-1------------1-1---------------1-1--------------3------------------------| 
G||-0-0------------2-2---------------0-0--------------4------------------------| 
D||-2-2------------3-3---------------2-2--------------5------------------------| 
A||-3-3------------3-3---------------3-3--------------5------------------------| 
E||----------------1-1--------------------------------3------------------------| 
    A Bilbo Bolson, Legolas el elfo, Gimli el enano y a Boromir, estaban todos... 


[email protected]
		  

See also:

tabs Jesús Adrián Romero - Soy Libre de Afliccíon tabs Jesús Adrián Romero - Prefiero a Cristo tabs Jesús Adrián Romero - No es como yo tabs Los Ronaldos - No Puedo Vivir Sin Ti tabs Cesar Rodriguez - Arrepentimiento tabs Abracadabra - Estoy Metido Contigo
e-chords

Other versions:

tabs Agua Bendita - El Señor De Los Anillos
auto scroll beats size up size down change color hide chords drawings
tab show chords e-chords YouTube Clip e-chords hide all tabs e-chords go to top tab

share