311

Rub A Dub

311

tabs

by  TERCMORAES

save to print version add songbook text version e-mail correct tuner
chordsukulelecavacokeyboardtabbassdrumsharmonicaflute Guitar Pro
close

there isn't a video lesson for this song

chords

Rub A Dub

	  		
 Intro 
  Moderate Reggae Q=92 
               $ 
          G    C               Dm/E    C               Dm7/E 
 4/4 
  Gtr I 
  H.      Q    H.               Q      H.               Q 
|---------3S=|=8---------------10----|-8---------------------| 
|---------3S=|=8---------------10----|-8---------------10----| 
|---------4S=|=9---------------10----|-9---------------10----| 
|------------|-----------------------|-----------------10----| 
|------------|-----------------------|-----------------------| 
|------------|-----------------------|-----------------------| 
| 
| Gtr II 
| W            E. S +E  E E. S +E  E   E. S +E  E E. S +E  E 
|------------|-----------------------|-----------------------| 
|------------|---------------------1-|---------------------1-| 
|------------|---------------0-(0)---|---------------0-(0)---| 
|------------|----0-(0)-2-3----------|----0-(0)-2-3----------| 
|------------|-3---------------------|-3---------------------| 
|------------|-----------------------|-----------------------| 


                                         To Coda 
  Cmaj7           Dm7/C   Cmaj7 
  H.               Q      W 
|-----------------------|-------------------------| 
|-8---------------10----|-8-----------------------| 
|-9---------------10----|-9-----------------------| 
|-9---------------10----|-9-----------------------| 
|-----------------------|-------------------------| 
|-----------------------|-------------------------| 
| 
| E. S +E  E E. S +E  E   E. S +E  E E. S +E  E 
|-----------------------|-------------------------| 
|---------------------1-|---------------------1---| 
|---------------0-(0)---|---------------0-(0)-----| 
|----0-(0)-2-3----------|----0-(0)-2-3------------| 
|-3---------------------|-3-----------------------| 
|-----------------------|-------------------------| 


     C              Dm                  C5         D5 
  Gtr III 
  E  E      E  E E  E        E   E   E  E   E  E E E E E 
     |         |    |            |      |      |   |   | 
     /         /    /            /      /      /   /   / 

  Gtr I 
  E.    S  +E  E E.   a  S  +E   E   E.   S H. 
|-8------------7-------------------|---------------------| 
|------10-(10)---8----8s10-(10)----|------8-8------------| 
|-------------------------------10-|-9-------------------| 
|----------------------------------|---------------------| 
|----------------------------------|---------------------| 
|----------------------------------|---------------------| 


     C5             D5                 C5          D5 
  E  E      E  E E  E        E   E   E E E E E      E    E   E 
     |         |    |            |     |   |        |        | 
     /         /    /            /     /   /        /        / 

  E.    S  +E  E E.   a  S  +E   E   H       T T S  S S  S S E 
|-8------------7-------------------|----------------------------| 
|------10-(10)---8----8s10-(10)----|----------------------------| 
|-------------------------------10-|-9-------7h9p7----7---------| 
|----------------------------------|---------------10---10-9-7--| 
|----------------------------------|----------------------------| 
|----------------------------------|----------------------------| 


      C          Dm               C5         D5 
  E   E   E E  E  E     E E   E   E   E E  E  E  E E 
      |     |     |       |       |     |     |    | 
      /     /     /       /       /     /     /    / 

  S E   S E E  E  E  a  Q     S E   S E E  E  E  Q 
|---------------------------|------------------------| 
|---8---8-------------------|---8--------------------| 
|-9-------9-9-10-10-10S12---|-9-----9-9-9-10-10-12---| 
|---------------------------|------------------------| 
|---------------------------|------------------------| 
|---------------------------|------------------------| 


      C5         D5           C5         D5 
  E   E   E E  E  E E E   E   E   E E  E  E E E 
      |     |     |   |       |     |     |   | 
      /     /     /   /       /     /     /   / 

  S E   S E E  E  E Q     S E   S E E  E  E Q 
|---8---8---------------|---8---8---------------| 
|-------------10-10-8---|-------------10-10-8---| 
|-9-------9-9-10-10-9---|-9-------9-9-10-10-9---| 
|-----------------------|-----------------------| 
|-----------------------|-----------------------| 
|-----------------------|-----------------------| 


  C           C/D           C           C/D 
  Gtr III 
   e  e  e  e  e  e  e  e    e  e  e  e  e  e  e  e 
|-------------------------|-------------------------| 
|--8--8--8--8--8--8--8--8-|--8--8--8--8--8--8--8--8-| 
|--9--9--9--9--9--9--9--9-|--9--9--9--9--9--9--9--9-| 
|-10-10-10-10-10-10-10-10-|-10-10-10-10-10-10-10-10-| 
|-------------------------|-------------------------| 
|-------------------------|-------------------------| 


  C           C/D           C           C/D 
                             > 
   e  e  e  e  e  e  e  e    e  e  e  e  e  e  e  e 
|-------------------------|-------------------------| 
|--8--8--8--8--8--8--8--8-|--8--8--8--8--8--8--8--8-| 
|--9--9--9--9--9--9--9--9-|--9--9--9--9--9--9--9--9-| 
|-10-10-10-10-10-10-10-10-|-10-10-10-10-10-10-10-10-| 
|-------------------------|-------------------------| 
|-------------------------|-------------------------| 


  C       C/G        C       C/G        C       C/G        C       C/G 
  Gtr IV 
  E E E E Q  S S E   E E E E Q  S S E   E E E E Q  S S E   E E E E Q  S S E 
|------------------|------------------|------------------|------------------|| 
|---8-8-8-5--6-5---|---8-8-8-5--6-5---|---8-8-8-5--6-5---|---8-8-8-5--6-5---|| 
|-5--------------7-|-5--------------7-|-5--------------7-|-5--------------7-|| 
|------------------|------------------|------------------|------------------|| 
|------------------|------------------|------------------|------------------|| 
|------------------|------------------|------------------|------------------|| 


 Chorus 
  C             D5       C             D5 
  PM------------------------------------------- 
  S S E S S S S E E Q    S S E S S S S E E Q 
|----------------------|----------------------| 
|----------------------|----------------------| 
|-5-5---5-5-5-5-0-0-0--|-5-5---5-5-5-5-0-0-0--| 
|----------------------|----------------------| 
|----------------------|----------------------| 
|----------------------|----------------------| 


  C               D5       C               D5 
 ----------------------------------------------| 
  S S S S S S S S E E Q    S S S S S S S S E E Q 
|------------------------|-------------------------| 
|------------------------|-------------------------| 
|-5-5-5-5-5-5-5-5-0-0-0--|-5-5-5-5-5-5-5-5-0-0-0---| 
|------------------------|-------------------------| 
|------------------------|-------------------------| 
|------------------------|-------------------------| 


  C             C/G      C             C/G 
  PM------------------------------------------- 
  S S E S S S S E E Q    S S E S S S S E E Q 
|----------------------|----------------------| 
|----------------------|----------------------| 
|-5-5---5-5-5-5-0-0-0--|-5-5---5-5-5-5-0-0-0--| 
|----------------------|----------------------| 
|----------------------|----------------------| 
|----------------------|----------------------| 


  C               C/G      C               C/G 
 ----------------------------------------------| 
  S S S S S S S S E E Q    S S S S S S S S E E Q 
|------------------------|-------------------------|| 
|------------------------|-------------------------|| 
|-5-5-5-5-5-5-5-5-0-0-0--|-5-5-5-5-5-5-5-5-0-0-0---|| 
|------------------------|-------------------------|| 
|------------------------|-------------------------|| 
|------------------------|-------------------------|| 


 Verse 
    C       Dm          C5      D5 
  Gtr III 
  E E E E E  E E  E   E E E E E  E E  E 
|---8---8---10---10-|---8---8---10---10-| 
|---8---8---10---10-|---8---8---10---10-| 
|---9---9---10---10-|-------------------| 
|-------------------|-------------------| 
|-------------------|-------------------| 
|-------------------|-------------------| 


    C5      D5          C5      D5 
  E E E E E  E E  E   E E E E E  E E  E 
|---8---8---10---10-|---8---8---10---10-| 
|---8---8---10---10-|---8---8---10---10-| 
|-------------------|-------------------| 
|-------------------|-------------------| 
|-------------------|-------------------| 
|-------------------|-------------------| 


    C       Dm/G        C       Dm/G 
  Gtr III 
  E E E E E  E E  E   E E E E E  E E  E 
|---8---8---10---10-|---8---8---10---10-| 
|---8---8---10---10-|---8---8---10---10-| 
|---9---9---10---10-|---9---9---10---10-| 
|-------------------|-------------------| 
|-------------------|-------------------| 
|-------------------|-------------------| 
| 
| Gtr I 
| W                   W 
|-------------------|-------------------| 
|-------------------|-------------------| 
|-------------------|-------------------| 
|-------------------|-------------------| 
|-------------------|-------------------| 
|-------------------|-------------------| 


                             D.S. al Coda 
    C       Dm/G        C       Dm/G 
  E E E E E  E E  E   E E E E E  E E   E 
|---8---8---10---10-|---8---8---10----10---|| 
|---8---8---10---10-|---8---8---10----10---|| 
|---9---9---10---10-|---9---9---10----10---|| 
|-------------------|----------------------|| 
|-------------------|----------------------|| 
|-------------------|----------------------|| 
| 
| W                   H       Q    Q 
|-------------------|--------------3/------|| 
|-------------------|--------------3/------|| 
|-------------------|--------------4/------|| 
|-------------------|----------------------|| 
|-------------------|----------------------|| 
|-------------------|----------------------|| 


   Bridge 
    & 
    C       Dm/G         C       Dm/G 
    Gtr III 
    E E E E  e  e  e E   E E E E  e  e  e E 
||--8---8---10-10-10---|-8---8---10-10-10----|| 
||o-8---8---10-10-10---|-8---8---10-10-10---o|| 
||--9---9---10-10-10---|-9---9---10-10-10----|| 
||---------------------|---------------------|| 
||o--------------------|--------------------o|| 
||---------------------|---------------------|| 


   Chorus 
      C5       Dm        C5       D5 
    Gtr III 
    E E E E  E E E E   E E E E  E E E E 
      |   |    |   |     |   |    |   | 
      /   /    /   /     /   /    /   / 

    Gtr IV 
    H        H         H        H 
||----------10-------|---------10-------| 
||o---------10-------|---------10-------| 
||----------10-------|---------10-------| 
||-------------------|------------------| 
||o------------------|------------------| 
||-------------------|------------------| 


    C5       D5        C5       D5 
  E E E E  E E E E   E E E E  E E E E 
    |   |    |   |     |   |    |   | 
    /   /    /   /     /   /    /   / 

  H        H         H        H 
|---------10-------|---------10---------|| 
|---------10-------|---------10--------o|| 
|---------10-------|---------10---------|| 
|------------------|--------------------|| 
|------------------|-------------------o|| 
|------------------|--------------------|| 


 Outro 
  Gtr II 
  E. S +E  E E. S +E  E   E. S +E  E E. S +E  E 
|-----------------------|-----------------------| 
|---------------------1-|---------------------1-| 
|---------------0-(0)---|---------------0-(0)---| 
|----0-(0)-2-3----------|----0-(0)-2-3----------| 
|-3---------------------|-3---------------------| 
|-----------------------|-----------------------| 


  E. S +E  E E. S +E  E   E. S +E  E E. S +E  E 
|-----------------------|-----------------------| 
|---------------------1-|---------------------1-| 
|---------------0-(0)---|---------------0-(0)---| 
|----0-(0)-2-3----------|----0-(0)-2-3----------| 
|-3---------------------|-3---------------------| 
|-----------------------|-----------------------| 


  +W           +W           Wx3 
|------------|------------|--------*| 
|-(1)--------|-(1)--------|--------*| 
|------------|------------|--------*| 
|------------|------------|--------*| 
|------------|------------|--------*| 
|------------|------------|--------*| 
		  

See also:

tabs Red Hot Chili Peppers - I Could Have Lied tabs Ben Harper - Diamonds on inside tabs Red Hot Chili Peppers - By The Way (ver. 2) tabs Audioslave - Show Me How To Live tabs Incubus - 11 A.M. tabs Red Hot Chili Peppers - Scar Tissue
e-chords

Other versions:

tabs 311 - Rub A Dub
auto scroll beats size up size down change color hide chords drawings
tab show chords e-chords YouTube Clip e-chords hide all tabs e-chords go to top tab

share