311

Down

311

tabs Advanced advanced

by  GUISADO

save to print version add songbook text version e-mail correct tuner
chordsukulelecavacokeyboardtabbassdrumsharmonicaflute Guitar Pro
close

there isn't a video lesson for this song

chords

Down

	  		311 - down 
 
 
intro/verso  
e|---------------------- 
b|---------------------- 
g|---------------------- 
d|-5-5-5/7-x-7-6-5-x---- 
a|-5-5-5/7-x-7-6-5-x---- 
e|-3-3-3/5-x-5-4-3-x---- 
 
 
Refrão 
e|--------------------------------- 
b|--------------------------------- 
g|--------------------------------- 
d|-2-2-2-2-2-2-x-2-x-2-6-6-6-4-6--- 
a|-2-2-2-2-2-2-x-2-x-2-6-6-6-4-6--- 
e|-0-0-0-0-0-0-x-0-x-0-4-4-4-2-4--- 
 
 
 
bridge 
e|-----------------------------           
b|----------------------------- 
g|----------------------------- 
d|-4-4-4-2-x-x-x----4/6-6-2----             
a|-2-2-2-2-x-x-x----4/6-6-2---- 
e|-2-2-2-0-x-x-x----2/4-4-0---- 
 
e|----------------------------- 
b|----------------------------- 
g|----------------------------- 
d|-2-2-2--2---2-2---2--4-x-6--- 
a|-2-2-2--2---2-2---2--4-x-6--- 
e|-0-0-0--0---0-0---0--2-x-4--- 

		  

See also:

tabs Ben Harper - Diamonds on inside tabs Red Hot Chili Peppers - Scar Tissue (ver. 2) tabs Red Hot Chili Peppers - The Zephyr Song tabs Red Hot Chili Peppers - I Could Die For You tabs Red Hot Chili Peppers - Give It Away tabs Red Hot Chili Peppers - Scar Tissue
e-chords

Other versions:

tabs 311 - Down tabs Blink 182 - Down tabs Fuel - Down tabs Pearl Jam - Down tabs STP (Stone Temple Pilots) - Down tabs Marian Hill - Down
auto scroll beats size up size down change color hide chords drawings
tab show chords e-chords YouTube Clip e-chords hide all tabs e-chords go to top tab

share