311

Sweet

311

tabs

by  LINEKERS

save to print version add songbook text version e-mail correct tuner
chordsukulelecavacokeyboardtabbassdrumsharmonicaflute Guitar Pro
close

there isn't a video lesson for this song

chords

Sweet

	  		**GUITAR 1** 
                                                          
--------------------------|--------------------------| 
--------------------------|--------------------------| 
--------------------------|--------------------------| 
--------------------------|--------------6-----6--7--| 
--------------4-----4--5--|----7-7-7--7-----7--------| 
--4--5--5--5-----5--------|--------------------------| 


                                                                               
-------------------------|--------------------------|------------------------| 
-------------------------|--------------------------|------------------------| 
-------------------------|--------------------------|-------------6----------| 
----7-----------------7--|--------------6-----6--7--|----------7-----7----7--| 
-------7-----------7-----|----7-7-7--7-----7--------|-------7----------------| 
----------5--5--5--------|--------------------------|----5-------------------| 


                                                                                 
--------------------------|------------------------|---------------------------| 
--------------------------|------------------------|---------------------------| 
--------------------------|------------------------|---------------------------| 
--------------6-----6--7--|---------------------7--|---------------6-----6--7--| 
----7-7-7--7-----7--------|--7----7----------7-----|----7-7-7--7-7----7--------| 
--------------------------|----------5----5--------|---------------------------| 


                                                                                 
------------------------| 
------------------------| 
-------------6--7--6~---| 
-----7----7-------------| 
--7---------------------| 
------------------------| 


**GUITAR 2** 

--x--7--7--7--7--x--x--x--|--------------5--x--x--x--|------7--------7----| 
--x--9--9--9--9--x--x--x--|--4--5--5--5--5--x--x--x--|------9--------9----| 
--x--7--7--7--7--x--x--x--|--5--6--6--6--6--x--x--x--|------7--------7----| 
--------------------------|--------------------------|--------------------| 
--------------------------|--------------------------|--------------------| 
--------------------------|--------------------------|--------------------| 


                                                                
------5--------5----|------7--------7----|------5--------5----| 
------5--------5----|------9--------9----|------5--------5----| 
------6--------6----|------7--------7----|------6--------6----| 
--------------------|--------------------|--------------------| 
--------------------|--------------------|--------------------| 
--------------------|--------------------|--------------------| 


Chorus 

-------------------------|-------------------------| 
----------------------9b-|-------------------------| 
-------------------7-----|----7--------------------| 
--------6--7--9----------|-------9--7--6--7--6-----| 
--5--7-------------------|----------------------7--| 
-------------------------|-------------------------| 


                                                                          
-----------------------|----------------------| 
-----------------------|----------------------| 
-----------------------|----------------------| 
-----------------------|----------------------| 
--5--4-----4~----------|--5--4----------------| 
--------5-----------5--|--------5--3----------| 


Solo 

--12------12------12----|--12------12------12----|--12------12------12----| 
--12------12------12----|--14------14------14----|--12------12------12----| 
------------------------|------------------------|------------------------| 
------------------------|------------------------|------------------------| 
------------------------|------------------------|------------------------| 
------------------------|------------------------|------------------------| 


                                                                               
--12------12-------14h-12--|--12------12------12----|--12------12------12----| 
--14------14----x----------|--12------12------12----|--14------14------14----| 
---------------------------|------------------------|------------------------| 
---------------------------|------------------------|------------------------| 
---------------------------|------------------------|------------------------| 
---------------------------|------------------------|------------------------| 


                                                                           
--12------12------12----|--12--------16h-14-------|----------------------| 
--12------12------12----|--14----------------x----|----5--9--9-----------| 
------------------------|-------------------------|---------------7~-----| 
------------------------|-------------------------|----------------------| 
------------------------|-------------------------|----------------------| 
------------------------|-------------------------|----------------------| 


                                                                           
--------------------|---------------------------|------------------------| 
--------------------|----5--9--9--9-------------|------------------------| 
------6--6~---------|------------------7--------|--7--6----6--6--7--7----| 
--------------------|---------------------------|------------------------| 
--------------------|---------------------------|------------------------| 
--------------------|---------------------------|------------------------| 


                                                          
----------------------------|---------------------------| 
----5--9--9--9--------------|---------------------------| 
------------------7----7----|--6----7----6--------------| 
----------------------------|-----------------7----6----| 
----------------------------|---------------------------| 
----------------------------|---------------------------| 


                                                                                
------------------------|-------------------------| 
------------------------|----9-------9--10--10----| 
------------------7--7--|---------7---------------| 
-------6--7--9----------|-------------------------| 
----7-------------------|-------------------------| 
------------------------|-------------------------| 

----17--16--14~---16----------|---------------------------------------| 
----------------------17--15--|--14-15-14-12--14--12------------------| 
------------------------------|-----------------------14h-13----------| 
------------------------------|-------------------------------14h-12--| 
------------------------------|---------------------------------------| 
------------------------------|---------------------------------------| 


                                                               
------------------------------|--------12----14----15~-------| 
----------------------12--14--|--15--------------------------| 
----------13b---13------------|------------------------------| 
--12h-14----------------------|------------------------------| 
------------------------------|------------------------------| 
------------------------------|------------------------------| 


                                                                         
--17----17----17----17----16----17----|--19--19----19--16-17-16--------| 
--------------------------------------|--------------------------17----| 
--------------------------------------|--------------------------------| 
--------------------------------------|--------------------------------| 
--------------------------------------|--------------------------------| 
--------------------------------------|--------------------------------| 


                                                                           
--16h19h16----14h17h14----------------------|----------------15------15--| 
-----------17----------15-12----------------|------------14--------------| 
--------------------------------14----13----|--------13------------------| 
--------------------------------------------|--12------------------------| 
--------------------------------------------|----------------------------| 
--------------------------------------------|----------------------------| 


                                                   
--16-17-16-17-16-17--16--17--19-17-19-17-19--21--| 
-------------------------------------------------| 
-------------------------------------------------| 
-------------------------------------------------| 
-------------------------------------------------| 
-------------------------------------------------| 


                                          
--19-21-19-21-21-19-21-19-22------------| 
----------------------------------------| 
----------------------------------------| 
--------------------------------14--14--| 
----------------------------------------| 
----------------------------------------| 


                                                                 
------------------------------------------|--------15~---------| 
------14-----14----14-----14--14--14--17r-|--------------------| 
--17b----17b----17b---17b-----------------|--------------------| 
------------------------------------------|--------------------| 
------------------------------------------|--------------------| 
------------------------------------------|--------------------| 


                                                                        
--16--------------17--|--17--------17---------|-----------------------| 
----------------------|------------17------0--|-----------------------| 
----------------------|-----------------------|-----------------------| 
----------------------|-----------------------|--7--6-----6----6------| 
----------------------|-----------------------|--------7--------------| 
----------------------|-----------------------|-----------------------| 


                             
--------------------------|| 
--------------------------|| 
--------------------------|| 
--7----6------------------|| 
------------7----5--------|| 
--------------------------|| 
		  

See also:

tabs Ben Harper - Diamonds on inside tabs Red Hot Chili Peppers - Scar Tissue (ver. 2) tabs Red Hot Chili Peppers - The Zephyr Song tabs Red Hot Chili Peppers - I Could Die For You tabs Red Hot Chili Peppers - Give It Away tabs Red Hot Chili Peppers - Scar Tissue
e-chords

Other versions:

tabs Feeder - Sweet tabs Howie Day - Sweet tabs Rumanastone - Sweet tabs 311 - Sweet tabs Killing Heidi - Sweet (Acoustic) tabs Feeder - Sweet (ver. 2)
auto scroll beats size up size down change color hide chords drawings
tab show chords e-chords YouTube Clip e-chords hide all tabs e-chords go to top tab

share