Westcoast Consortium

Some Other Someda

Westcoast Consortium

keyboards

by  EDUCASTILHO

save to print version add songbook text version e-mail correct tuner
chordsukulelecavacokeyboardtabbassdrumsharmonicaflute Guitar Pro
close

there isn't a video lesson for this song

chords

Some Other Someda

	  		

Tuning: 1/4 step down. 

0:05 

G|----| 
D|----| 
A|3-\-| 
E|----| 

G|----------------------------------------------------------------| 
D|----------------------------------------------------------------| 
A|--------------------------------1-----------1---1---------------| 
E|1-----------1---1-----------------------------------------------| 

G|--------------------------------| 
D|--------------------------------| 
A|----------------------------3---| 
E|1-------------------------------| 

0:13 

G|----------------------------------------------------------------| 
D|----------------------------------------------------------------| 
A|------------3-------3-------3---------------3-------3-------3---| 
E|1-------------------------------1-------------------------------| 

G|----------------------------------------------------------------| 
D|--------------------------------1-----------1---1---------------| 
A|------------3-------3-------1-3---------------------------------| 
E|1---------------------------------------------------------------| 

G|--------------------------------| 
D|5---5---------------------------| 
A|------------3-----------1---0---| 
E|--------------------3-----------| 

G|----------------------------------------------------------------| 
D|----------------------------------------------------------------| 
A|------------3-------3-------3---------------3-------3-------3---| 
E|1-------------------------------1-------------------------------| 

G|----------------------------------------------------------------| 
D|--------------------------------1-----------1---1---------------| 
A|------------3-------3-------1-3---------------------------------| 
E|1---------------------------------------------------------------| 

G|--------------------------------| 
D|5---5---------------------------| 
A|------------3-------------------| 
E|--------------------------------| 

0:39 

G|----------------------------------------------------------------| 
D|----------------------------------------------------------------| 
A|--------------------------------3-------------------------------| 
E|1-----------1---1---------------------------1---1---------------| 

G|----------------------------------------------------------------| 
D|----------------------------------------------------------------| 
A|3-----------3-------------------1-----------1---1---------------| 
E|----------------1-----------------------------------------------| 

G|--------------------------------| 
D|--------------------------------| 
A|3-----------3---1-----------1---| 
E|--------------------------------| 

0:52 

G|----------------------------------------------------------------| 
D|----------------------------------------------------------------| x2 
A|--------------------------------1-----------1---1---------------| 
E|1-----------1---1-----------------------------------------------| 

G|----------------------------------------------------------------| 
D|----------------------------------------------------------------| 
A|----------------0-----------0-----------------------------------| 
E|1-----------1-------------------4-----------4---4---------------| 

G|----------------------------------------------------------------| 
D|5-----------5---5---------------5-------------5-5-----5-5---3---| 
A|----------------------------------------------------------------| 
E|----------------------------------------------------------------| 

G|----------------------------------------------------------------| 
D|1-----------1---1---------------1-----------1---1---------------| 
A|----------------------------------------------------------------| 
E|----------------------------------------------------------------| 

G|----------------------------------------------------------------| 
D|5---5-----------------------------------------------------------| 
A|------------3-------------------------------------------1---0---| 
E|----------------------------------------------------3-----------| 

1:22 

G|----------------------------------------------------------------| 
D|----------------------------------------------------------------| 
A|------------3-------3-------3---------------3-------3-------3---| 
E|1-------------------------------1-------------------------------| 

G|----------------------------------------------------------------| 
D|--------------------------------1-----------1---1---------------| 
A|------------3-------3-------1-3---------------------------------| 
E|1---------------------------------------------------------------| 

G|--------------------------------| 
D|5---5---------------------------| 
A|------------3-----------1---0---| 
E|--------------------3-----------| 

G|----------------------------------------------------------------| 
D|----------------------------------------------------------------| 
A|------------3-------3-------3---------------3-------3-------3---| 
E|1-------------------------------1-------------------------------| 

G|----------------------------------------------------------------| 
D|--------------------------------1-----------1---1---------------| 
A|------------3-------3-------1-3---------------------------------| 
E|1---------------------------------------------------------------| 

G|--------------------------------| 
D|5---5---------------------------| 
A|------------3-------------------| 
E|--------------------------------| 

1:48 

G|----------------------------------------------------------------| 
D|----------------------------------------------------------------| 
A|--------------------------------3-------------------------------| 
E|1-----------1---1---------------------------1---1---------------| 

G|----------------------------------------------------------------| 
D|----------------------------------------------------------------| 
A|3-----------3-------------------1-----------1---1---------------| 
E|----------------1-----------------------------------------------| 

G|--------------------------------| 
D|--------------------------------| 
A|3-----------3---1-----------1---| 
E|--------------------------------| 

2:01 

G|----------------------------------------------------------------| 
D|----------------------------------------------------------------| x2 
A|--------------------------------1-----------1---1---------------| 
E|1-----------1---1-----------------------------------------------| 

G|----------------------------------------------------------------| 
D|----------------------------------------------------------------| 
A|----------------0-----------0-----------------------------------| 
E|1-----------1-------------------4-----------4---4---------------| 

G|----------------------------------------------------------------| 
D|5-----------5---5---------------5-------------5-5-----5-5---3---| 
A|----------------------------------------------------------------| 
E|----------------------------------------------------------------| 

G|----------------------------------------------------------------| 
D|1-----------1---1---------------1-----------1---1---------------| 
A|----------------------------------------------------------------| 
E|----------------------------------------------------------------| 

G|----------------------------------------------------------------| 
D|5---5-----------------------------------------------------------| 
A|------------3-------------------------------------------1---0---| 
E|----------------------------------------------------3-----------| 

2:31 

G|----------------------------------------------------------------| 
D|----------------------------------------------------------------| 
A|------------3-------3-------3---------------3-------3-------3---| 
E|1-------------------------------1-------------------------------| 

G|--------------------------------------------------------------------| 
D|--------------------------------------------------------------------| 
A|------------3---1-----------1---1-----------1---1-----------1---1---| 
E|1-------------------------------------------------------------------| 



4:48 

G|--------| 
D|--------| 
A|3-\-----| 
E|----1---| 
		  

auto scroll beats size up size down change color columns
tab show chords e-chords YouTube Clip e-chords hide all tabs e-chords go to top tab

share