Carlos Santana

home > Carlos Santana

I'm Feeling You Keyboard

Carlos Santana

Difficulty: IntermediateIntermediate

by gustsilva

tuner correct add songbook print version text version save to e-mail
chordsukulelecavacokeyboardtabbassdrumsharmonicsflute Guitar Pro
chords

I'm Feeling You

  		Intro 
 
E |---------------------------------------11-----------------------------------| 
B |--/8-8-8-8------------------------11-----11/13-11-8h11p8--------------------| 
G |-----------10-10-8/10--8-8-10-8-10------------------------10-8/10-8---------| 
D |--------------------------------------------------------------------8/10-8--| 
A |----------------------------------------------------------------------------| 
E |----------------------------------------------------------------------------| 
 

The chords for the second verse are the same with the same structure as the 
first, and the second Chorus has the same chords and structure of the first 
as well. For the harmonising Guitar-Vocals part at the end, you'll probally 
need to listen to the record to get it exact. 

Eb  Fm 
Sometimes I 
Eb              Fm 
imagine a world without you 
Eb        Fm               Eb                Fm 
But most times I'm just so happy that I ever found you It's a 
Cm          Fm 
complicated web That you 
Cm              Fm 
weave inside my head So much 
Cm                 Fm 
pleasure with such pain I hope we 
Cm            Fm 
always always stay the same 

Eb              Fm               G# 
I'm feeling the way you cross my mind 
        Cm             Bb       Eb 
And you save me in the knick of time 
               Fm                     G# 
I'm riding the highs, I'm digging the lows 
          Cm        Bb 
'Cause at least I feel alive 
Cm          Fm      Cm              Fm 
I've never faced so many emotional days 
  Cm            Fm 
But my, life is good 
            Cm   Fm 
I'm feeling you 
            Cm   Fm 
I'm feeling you 

You go and then I can finally breathe in 
'Cause, baby, I know in the end you'll never leave it 
Well, we're rarely ever sane 
I drive you crazy and you do the same 
But your fire fills my soul 
And it warms me up like no one knows 

I'm feeling the way you cross my mind 
And you save me in the knick of time 
I'm riding the highs, I'm digging the lows 
'Cause at least I feel alive 
I've never faced so many emotional days 
But my, life is good 
I'm feeling you 
I'm feeling you 

Solo 
                         ^  ^ 
 
E |--/8-11-11--/8-11-11--8-13-13-------/8-11-11--/8-11-11--8-11--11/13---------| 
B |----------------------------------------------------------------------11/13-| 
G |----------------------------------------------------------------------------| 
D |----------------------------------------------------------------------------| 
A |----------------------------------------------------------------------------| 
E |----------------------------------------------------------------------------| 
 

                   
---------------------fairly quick----------------------- 
 
               ^ 
 
E |--------------18----18-16-15---------------------15-16-18------------------| 
B |--13-11----------------------18p16p15---15h16h18----------18-16-15-16-18---| 
G |--------------------------------------17-----------------------------------| 
D |---------------------------------------------------------------------------| 
A |---------------------------------------------------------------------------| 
E |---------------------------------------------------------------------------| 
 


                  
--------------------fairly fast-------------- 
 
   ^  ^  ^  ^  ^  ^  ^  ^  ^ 
 
E |--18-18-18-18-18-18-18-18-18-18-15-15--15-15-15-15-15-15-15-15-------------| 
B |----------------------------------18-18-16-16-16-16-16-16-16-16-15-13------| 
G |---------------------------------------------------------------------------| 
D |---------------------------------------------------------------------------| 
A |---------------------------------------------------------------------------| 
E |---------------------------------------------------------------------------| 
 

 
E |----------------------------------------------------------------| 
B |----------------------------------------------------------------| 
G |------8---------8---------8--------10/12-10---------------------| 
D |-8h10-------8h10-------8h10-------------------------------------| 
A |----------------------------------------------------------------| 
E |----------------------------------------------------------------| 
 

And the way that you save me in the knick of time 

 
E |----------------------------------------------------------------| 
B |----------------------------------11-9-8------------------------| 
G |------8------------8----------------------10-8------------------| 
D |-8h10-------8h10--------------------------------10-8------------| 
A |----------------------------------------------------------------| 
E |----------------------------------------------------------------| 
 

Oh, I'm feeling the way when you walk on back 

 
E |----------------------------------------------------------------| 
B |----------------------------------------------------------------| 
G |--------8-----------8-----------8----10/12-10-------------------| 
D |-8h10------8h10-----------8h10----------------------------------| 
A |----------------------------------------------------------------| 
E |----------------------------------------------------------------| 
 

I feel light, I feel love, I feel butterflies 

E |----------------------------------------------------------------| 
B |----------------------------------------------------------------| 
G |--------8-------------8----------------------8-9-10-9-8---------| 
D |-8h10----------8h10-------------------6-8-10--------------------| 
A |-------------------------------6-8-10---------------------------| 
E |----------------------------------------------------------------| 
	  

Full key step upFull key step up
Half key step upHalf key step up
Half key step downHalf key step down
Full key step downFull key step down
Search Paypal
auto scroll beats size up size down change color columns
tab show chords e-chords YouTube Clip e-chords hide all tabs e-chords go to top tab