Bethel Music

home > Bethel Music

Draw Near Keyboard

Bethel Music

Difficulty: EasyEasy

by jov%2Dcorrea

tuner correct add songbook print version text version save to e-mail
chordsukulelecavacokeyboardtabbassdrumsharmonicsflute Guitar Pro
chords

Draw Near

  		
Intro 

e|--------------------|---------------------|--------------------|---------------------| 
B|--------------------|---------------------|--------------------|---------0-----------| 
G|------0---0---0---0-|----0---------0------|------0---0---0---0-|----0---------0----0-| 
D|--0h2---2---2---0---|--0----0----0----0---|--0h2---2---2---0---|--0----0----0----0---| 
A|3-------------------|---------2-----------|3-------------------|---------------------| 
E|--------------------|3--------------------|--------------------|3--------------------| 


verse 1 

       Draw near to me, for I will draw near to you. 
       Pull on the strings of my heart; for I long to respond to you. (repeat once) 

e|--------------------|---------------------|--------------------|---------------------| 
B|--------------------|---------------------|--------------------|---------0-----------| 
G|------0---0---0---0-|----0---------0------|------0---0---0---0-|----0---------0----0-| 
D|--0h2---2---2---0---|--0----0----0----0---|--0h2---2---2---0---|--0----0----0----0---| 
A|3-------------------|---------2-----------|3-------------------|---------------------| 
E|--------------------|3--------------------|--------------------|3--------------------| 


verse 2 

       All my love is for you, all my love is yours; 
       All my love is for you, all my love is yours! 

e|--------------------|----------------------|--------------------|---------------------| 
B|--------------------|----------------------|--------------------|---------0-----------| 
G|------0---0---0---0-|----0----------0------|------0---0---0---0-|----0---------0----0-| 
D|--0h2---2---2---0---|--0----0-----0----0---|--0h2---2---2---0---|--0----0----0----0---| 
A|3-------------------|----------------------|3-------------------|---------------------| 
E|--------------------|0---------3-----------|--------------------|3--------------------| 

(Repeat verse 1 and 2 again) 


Lead-in (from verse 2 to Chorus) 

       All my love is for you, and all my love is yours! 

e|--------------------|---------------------| 
B|--------------------|---------0-----------| 
G|------0---0---0---0-|----0---------0----0-| 
D|--0h2---2---2---0---|--0----0----0----0---| 
A|3-------------------|---------------------| 
E|--------------------|3--------------------| 



NOTE: The intensity builds up to the Chorus, which leads from picking to strumming. 
I've provided the variations of the chords that are used during the Chorus: 

 Dsus:    Em:      C:      G:    Dsus2: 
 E - x   E - 0   E - 0   E - 3   E - x 
 A - 5   A - 2   A - 3   A - 2   A - 0 
 D - 4   D - 2   D - 0   D - 0   D - 0 
 G - 0   G - 0   G - 0   G - 0   G - 2 
 B - 3   B - 3   B - 3   B - 3   B - 3 
 E - 3   E - 3   E - 3   E - 3   E - 3 


tabchorus
Dsus Em C G Dsus2 I've made a place for you here, so come on, come on! Dsus Em C G Dsus2 All things are possible here, so come on, come on!
tab
x2 (repeat verse 1) ************************************ | h Hammer-on ************************************

Full key step upFull key step up
Half key step upHalf key step up
Half key step downHalf key step down
Full key step downFull key step down
Search Paypal
auto scroll beats size up size down change color columns
tab show chords e-chords YouTube Clip e-chords hide all tabs e-chords go to top tab