Smashing Pumpkins

home > Smashing Pumpkins

The Bells Harmonica Tab

Smashing Pumpkins

Difficulty: nolevelnolevel

by lavaileo

tuner correct add songbook print version text version save to e-mail
chordsukulelecavacokeyboardtabbassdrumsharmonicsflute Guitar Pro
chords

The Bells

(James Iha)

  		
V= ↓   U= ↑ 

E riff  
V U V U V U V U V V U 
-0----0---0---0---0-----0---0---0---0-----0---0 
-0----0---0---0---0-----0---0---0---0-----0---0 
-1----1---1---1---1-----1---1---1---1-----1---1 
-2----2---2---2---2-----2---2---2---2-----2---2 
-0h2--2---2---2---0h2---2---2---2---2-----2---2 
-0----0---0---0---0-----0---0---0---0-----0---0 
  
 A riff 
 -0---0-0-0-0---0--0-0--0-0 
-0---0-0-0-0---0--0-0--0-0 
-2---2-2-2-2---2--2-2--2-2 
-2---2-2-2-2---2--2-2--2-2 
-0---0-0-0-0---0--0-0--0-0 
-0---0-0-0-0---0--0-0--0-0 
  
  
D riff 
V U V U V U V U V U V U V U V 
 -0---0-0-0-0---0-0-0-0---0-0-0-0---0-0 
-3---3-3-3-3---3-3-3-3---3-3-3-3---3-3 
-2---2-2-2-2---2-2-2-2---2-2-2-2---2-2 
-0---0-0-0-0---0-0-0-0---0-0-0-0---0-0 
-0---0-0-0-0---0-0-0-0---0-0-0-0---0-0 
-------------------------------------- 
  
Intro: E riff 
  
E riff A riff E riff 
Ooh the bells are ringing out. What a sound  (X2) 

D riff E riff 
And Im in love, and Im in love 

D riff E riff 
The joy of love, the coming of, Jesus, Jesus 

A riff  
Did you call my name? 

E riff A riff 
Never ever felt afraid 

E riff A riff  
Did you hold onto, did you make it thru you? 

E riff A riff E riff 
doo doo doo, doo doo doodoo doo doo doo doo doo 
  

D riff E riff 
Theres so much doubt in every heart 

D riff  
for all our faults we carry on 

E riff A riff 
Jesus, Jesus i ran away 

E riff A riff 
I got so scared i made mistakes 

E riff A riff D riff 
Will i hold on to did you make it thru 

E riff 
Ooh the bells are ringing out, what a sound 



Por Leonardo Gubert  [email protected] 
Escutando a música fica mais fácil pegar a batida da mão direita! 
	  

Full key step upFull key step up
Half key step upHalf key step up
Half key step downHalf key step down
Full key step downFull key step down
Search Paypal
auto scroll beats size up size down change color
tab show chords e-chords YouTube Clip e-chords hide all tabs e-chords go to top tab