Rage Against The Machine

home > Rage Against The M...

Take The Power Back (ver. 2) Drum Tab

Rage Against The Machine

Difficulty: nolevelnolevel

tuner correct add songbook print version text version save to e-mail
chordsukulelecavacokeyboardtabbassdrummharmonicsflute Guitar Pro
chords

Take The Power Back (ver. 2)

  		
Band: Rage Against The Machine.
Song: Take The Power Back.
Album: Rage Against The Machine.
Drummer: Brad Wilk.
Tabbed By: Zo0o0oCh ([email protected])
_______________________________________________________________________
C = Crash Cymbal.       (x = Strike & # = Choke.)
H = Hi-Hat.             (x = Strike, 0 = Open & g = Ghost.)
Rd = Ride Cymbal.       (x = Strike, X = Accent, d = Drag & b = Bell.)
LR = Large Ride Cymbal. (x = Strike.) 
Cw = Cow Bells.         (1 = 1st Bell & 2 = 2nd Bell.)
S = Snare Drum.         (o = Hit, f = Flam, g = Ghost, d = Drag & r = One Handed Roll.)
F = Floor Tom.          (o = Hit.)
B = Bass Drum.          (o = Hit.)
Hf = Hi-Hat with Foot.  (x = Push Foot on Pedal.)
_______________________________________________________________________
INTRO (0.00)
H |xgggxggxxggx0---|xgggxggxxggx0---|xgggxggxxggx0---|xgggxggxxggx0---|
B |o-o-------------|o-o-------------|o-o-------------|o-o-------------|
  |1 + 2 + 3 + 4 + |1 + 2 + 3 + 4 + |1 + 2 + 3 + 4 + |1 + 2 + 3 + 4 + |

H |xgggxggxxggx0---|xgggxggxxggx0---|xgggxggxxggx0---|xgggxggxxggx0---|
B |o-o-------------|o-o-------------|o-o-------------|o-o-------------|
  |1 + 2 + 3 + 4 + |1 + 2 + 3 + 4 + |1 + 2 + 3 + 4 + |1 + 2 + 3 + 4 + |

H |xgggxggxxggx0---|xgggxggxxggx0---|xgggxggxxggx0---|xgggxggxxggx0---|
B |o-o-------------|o-o-------------|o-o-------------|o-o-------------|
  |1 + 2 + 3 + 4 + |1 + 2 + 3 + 4 + |1 + 2 + 3 + 4 + |1 + 2 + 3 + 4 + |

H |xgggxggxxggx0---|xgggxggxxggx0---|xgggxggxxggx0---|xgggxggx0-------|
S |----------------|----------------|----------------|------------f-oo|
B |o-o-------------|o-o-------------|o-o-------------|o-o--------o-o--|
  |1 + 2 + 3 + 4 + |1 + 2 + 3 + 4 + |1 + 2 + 3 + 4 + |1 + 2 + 3 + 4 + |

C |x---------------|----------------|----------------|----------------|
H |----x-x-x-x-x-x-|x-x-x-x-x-x-x-x-|x-x-x-x-x-x-x-x-|x-x-x-x-x-x-x-x-|
S |----o-------o---|----o-------o---|----o-------o---|----o----o--o---|
B |o-o----o--o--o--|o-o----o--o--o--|o-o----o--o--o--|o-o----o---o--o-|
  |1 + 2 + 3 + 4 + |1 + 2 + 3 + 4 + |1 + 2 + 3 + 4 + |1 + 2 + 3 + 4 + |

C |x---------------|----------------|----------------|----------------|
H |----x-x-x-x-x-x-|x-x-x-x-x-x-x-x-|x-x-x-x-x-x-x-x-|x-x-x-x-x-x-x-x-|
S |----o-------o---|----o-------o---|----o-------o---|----o--o----o---|
B |o-o----o--o--o--|o-o----o--o--o--|o-o----o--o--o--|o-o-------o--o--|
  |1 + 2 + 3 + 4 + |1 + 2 + 3 + 4 + |1 + 2 + 3 + 4 + |1 + 2 + 3 + 4 + |

FIRST VERSE (0.54)
C |x---------------|----------------|----------------|----------------|
H |----x-x-x-x-x-0-|x-x-x-x-x-x-x-0-|x-x-x-x-x-x-x-0-|x-x-x-x-x-x-x-0-|
S |----o-------o---|----o-------o---|----o-------o---|----o--o----o---|
B |o-o----o--o--o--|o-o----o--o--o--|o-o----o--o--o--|o-o-------o--o--|
  |1 + 2 + 3 + 4 + |1 + 2 + 3 + 4 + |1 + 2 + 3 + 4 + |1 + 2 + 3 + 4 + |

H |x-x-x-x-x-x-x-0-|x-x-x-x-x-x-x-0-|x-x-x-x-x-x-x-0-|x-x-x-x-x-x-x-x-|
S |----o-------o---|----o-------o---|----o-------o---|----o---o--o--o-|
B |o-o----o--o--o--|o-o----o--o--o--|o-o----o--o--o--|o-o----o--o--o--|
  |1 + 2 + 3 + 4 + |1 + 2 + 3 + 4 + |1 + 2 + 3 + 4 + |1 + 2 + 3 + 4 + |

C |x---------------|----------------|----------------|----------------|
H |--x-x-x-x-x-x-0-|x-x-x-x-x-x-x-0-|x-x-x-x-x-x-x-0-|x-x-x-x-x-x-x-0-|
S |----o-------o---|----o-------o---|----o-------o---|----o--o----o---|
B |o-o----o--o--o--|o-o----o--o--o--|o-o----o--o--o--|o-o-------o--o--|
  |1 + 2 + 3 + 4 + |1 + 2 + 3 + 4 + |1 + 2 + 3 + 4 + |1 + 2 + 3 + 4 + |

C |x---------------|----------------|----------------|----------------|
H |--x-x-x-x-x-x-0-|x-x-x-x-x-x-x-0-|x-x-x-x-x-x-x-0-|x-x-x--0--------|
S |----o-------o---|----o-------o---|----o-------o---|----o-o---------|
B |o-o----o--o--o--|o-o----o--o--o--|o-o----o--o--o--|o-o----o--------|
Hf|----------------|----------------|----------------|--------x-------|
  |1 + 2 + 3 + 4 + |1 + 2 + 3 + 4 + |1 + 2 + 3 + 4 + |1 + 2 + 3 + 4 + |

FIRST CHORUS (1.30)
C |x---------------|------------x---|x-x-------------|------------x---|
Rd|--x-x-x-x-x-x-x-|x-x-x-x-x-x-----|------x-x-x-x-x-|x-x-x-x-x-------|
S |----o-------o---|----o-------o-oo|----o-------o---|----o-------o-oo|
B |o-o---o-o--o--o-|o-o---oo-o-o----|o-o---o-o--o--o-|o-o---oo-o-o----|
  |1 + 2 + 3 + 4 + |1 + 2 + 3 + 4 + |1 + 2 + 3 + 4 + |1 + 2 + 3 + 4 + |

C |x-x-------------|------------x---|x-x-----x-------|--------|
Rd|------x-x-x-x-x-|x-x-x-x-x-x-----|----------------|--------|
S |----o-------o---|----o-------o-oo|----o-----------|----o---|
F |----------------|----------------|----------------|----o---|
B |o-o---o-o--o--o-|o-o---oo-o-o----|o-o---o-o-------|----o---|
Hf|----------------|----------------|------------x---|x-------|
  |1 + 2 + 3 + 4 + |1 + 2 + 3 + 4 + |1 + 2 + 3 + 4 + |1+2+3+4+|

SECOND VERSE (1.48)
C |#-#-------------|#-#-------------|#-#-------------|#-#-------------|
S |----------------|----------------|----------------|------------f-oo|
B |o-o-------------|o-o-------------|o-o-------------|o-o--------o-o--|
  |1 + 2 + 3 + 4 + |1 + 2 + 3 + 4 + |1 + 2 + 3 + 4 + |1 + 2 + 3 + 4 + |

C |x---------------|----------------|----------------|----------------|
H |----x-x-x-x-x-0-|x-x-x-x-x-x-x-0-|x-x-x-x-x-x-x-0-|x-x-x-x-x-x-x-0-|
S |----o-------o---|----o-------o---|----o-------o---|----o----o--o---|
B |o-o----o--o--o--|o-o----o--o--o--|o-o----o--o--o--|o-o----o---o--o-|
  |1 + 2 + 3 + 4 + |1 + 2 + 3 + 4 + |1 + 2 + 3 + 4 + |1 + 2 + 3 + 4 + |

H |x-x-x-x-x-x-x-0-|x-x-x-x-x-x-x-0-|x-x-x-x-x-x-x-0-|x-x-x--0--------|
S |----o-------o---|----o-------o---|----o-------o---|----o-o---------|
B |o-o----o--o--o--|o-o----o--o--o--|o-o----o--o--o--|o-o----o--------|
Hf|----------------|----------------|----------------|--------x-------|
  |1 + 2 + 3 + 4 + |1 + 2 + 3 + 4 + |1 + 2 + 3 + 4 + |1 + 2 + 3 + 4 + |

SECOND CHORUS (2.15)
C |x---------------|------------x---|x-x-------------|------------x---|
Rd|--x-x-x-x-x-x-x-|x-x-x-x-x-x-----|------x-x-x-x-x-|x-x-x-x-x-------|
S |----o-------o---|----o-------o-oo|----o-------o---|----o-------o-oo|
B |o-o---o-o--o--o-|o-o---oo-o-o----|o-o---o-o--o--o-|o-o---oo-o-o----|
  |1 + 2 + 3 + 4 + |1 + 2 + 3 + 4 + |1 + 2 + 3 + 4 + |1 + 2 + 3 + 4 + |

C |x-x-------------|------------x---|x-x------x------|---------|
Rd|------x-x-x-x-x-|x-x-x-x-x-x-----|----------------|---------|
S |----o-------o---|----o-------o-oo|----o-----------|-----o---|
F |----------------|----------------|----------------|-----o---|
B |o-o---o-o--o--o-|o-o---oo-o-o----|o-o---o--o------|-----o---|
Hf|----------------|----------------|------------x---|x--------|
  |1 + 2 + 3 + 4 + |1 + 2 + 3 + 4 + |1 + 2 + 3 + 4 + |1+a2+3+4+|

FIRST BRIDGE (2.32)
H |xgggxggxxggx0--|xgggxggxxggx0--|xgggxggxxggx0--|xgggxggx0------|
S |---------------|---------------|---------------|-----------f---|
B |o-o------------|o-o------------|o-o------------|o-o-------o----|
  |1 + 2 + 3 + 4 +|1 + 2 + 3 + 4 +|1 + 2 + 3 + 4 +|1 + 2 + 3 + 4 +|

GUITAR SOLO (2.42)
C |x---------------|----------------|----------------|----------------|
Rd|--x-x-x-x-x-x-x-|x-x-x-x-x-x-x-x-|x-x-x-x-x-x-x-x-|x-x-x-x-x-x-x-x-|
S |----o-------o---|----o-------o---|----o-------o---|----o-------o---|
B |o-o----o--o--o--|o-o----o--o--o--|o-o----o--o--o--|o-o----o--o--o--|
  |1 + 2 + 3 + 4 + |1 + 2 + 3 + 4 + |1 + 2 + 3 + 4 + |1 + 2 + 3 + 4 + |

C |x---------------|----------------|----------------|----------------|
Rd|----x-x-x-x-x-x-|x-x-x-x-x-x-x-x-|x-x-x-x-x-x-x-x-|x-x-x-x-x-x-x-x-|
S |----o-------o---|----o-------o---|----o-------o---|----o---o--o--o-|
B |o-o----o--o--o--|o-o----o--o--o--|o-o----o--o--o--|o-o----o--o--o--|
  |1 + 2 + 3 + 4 + |1 + 2 + 3 + 4 + |1 + 2 + 3 + 4 + |1 + 2 + 3 + 4 + |

C |x---------------|----------------|----------------|----------------|
Rd|--x-x-x-x-x-x-x-|x-x-x-x-x-x-x-x-|x-x-x-x-x-x-x-x-|x-x-x-x-x-x-x-x-|
S |----o-------o---|----o-------o---|----o-------o---|----o--o----o---|
B |o-o----o--o--o--|o-o----o--o--o--|o-o----o--o--o--|o-o---o---o--o--|
  |1 + 2 + 3 + 4 + |1 + 2 + 3 + 4 + |1 + 2 + 3 + 4 + |1 + 2 + 3 + 4 + |

C |x---------------|----------------|----------------|----------------|
Rd|--x-x-x-x-x-x-x-|x-x-x-x-x-x-x-x-|x-x-x-x-x-x-x-x-|x-x-x-x-x-x-x-x-|
S |----o-------o---|----o-------o---|----o-------o---|----o--o----o---|
B |o-o----o--o--o--|o-o----o--o--o--|o-o----o--o--o--|o-o---o---o--o--|
  |1 + 2 + 3 + 4 + |1 + 2 + 3 + 4 + |1 + 2 + 3 + 4 + |1 + 2 + 3 + 4 + |

SECOND BRIDGE (3.17)
C |x--x--x--x--x-x-|x-----x-----x-x-|x---------------|x---------------|
Rd|----------------|--x-x---x-------|----------------|----------------|
H |----------------|----------------|--x-x-x-x-x-x-x-|--x-x-x-x-x-x-x-|
S |----------------|o--o--o--o--o-o-|----o-------o---|----o-------o---|
B |o--o--o--o--o-o-|--o--o--o--o-o--|o--o--o--o-o--o-|o--o--o--o-o--o-|
  |1 + 2 + 3 + 4 + |1 + 2 + 3 + 4 + |1 + 2 + 3 + 4 + |1 + 2 + 3 + 4 + |

C |x-----x-----x-x-|x-----x-----x-x-|
H |--x-x---x-x-----|--x-x---x-x-----|
S |o--o--o--o--o-o-|o--o--o--o--o-o-|
B |--o--o--o--o-o-o|--o--o--o--o-o--|
  |1 + 2 + 3 + 4 + |1 + 2 + 3 + 4 + |

C |#-#-------------|----------------|----------------|----------------|
H |----------------|----x--00--00---|x---x-------0---|----------------|
S |----------------|----------------|----------------|----groo-o-o-ooo| 
B |o-o-------------|o-o-------------|o-o-------------|o-o-------------|
Hf|----x---x---x---|----------------|----------------|x---------------|
  |1 + 2 + 3 + 4 + |1 + 2 + 3 + 4 + |1 + 2 + 3 + 4 + |1 + 2 + 3 + 4 + |

H |x---x--x0-x00---|x---------------|x---x--x0-x00---|x---x--00-------|
Cw|----------------|----1112-2-2-21-|----------------|----------------|
S |----------------|----------------|----------------|------------f-oo|
B |o-o-------------|o-o-------------|o-o-------------|o-o--------o-o--|
  |1 + 2 + 3 + 4 + |1 + 2 + 3 + 4 + |1 + 2 + 3 + 4 + |1 + 2 + 3 + 4 + |

THIRD VERSE (3.49)
C |x---------------|----------------|----------------|----------------|
H |----x-x-x-x-x-x-|x-x-x-x-x-x-x-x-|x-x-x-x-x-x-x-x-|x-x-x-x-x-x-x-x-|
S |----o-------o---|----o-------o---|----o-------o---|----o--o----o---|
B |o-o----o--o--o--|o-o----o--o--o--|o-o----o--o--o--|o-o-------o--o--|
  |1 + 2 + 3 + 4 + |1 + 2 + 3 + 4 + |1 + 2 + 3 + 4 + |1 + 2 + 3 + 4 + |

H |x-x-x-x-x-x-x-x-|x-x-x-x-x-x-x-x-|x-x-x-x-x-x-x-x-|x-x----x--------|
S |----o-------o---|----o-------o---|----o-------o---|----o-o---------|
B |o-o----o--o--o--|o-o----o--o--o--|o-o----o--o--o--|o-o----o--------|
Hf|----------------|----------------|----------------|--------x-------|
  |1 + 2 + 3 + 4 + |1 + 2 + 3 + 4 + |1 + 2 + 3 + 4 + |1 + 2 + 3 + 4 + |

THIRD CHORUS (4.07)
C |x---------------|------------x---|x-x-------------|------------x---|
Rd|--x-x-x-x-x-x-x-|x-x-x-x-x-x-----|------x-x-x-x-x-|x-x-x-x-x-x-----|
S |----o-------o---|----o-------o-oo|----o-------o---|----o-------o-oo|
B |o-o---o-o--o--o-|o-o---oo-o-o----|o-o---o-o--o--o-|o-o---oo-o-o----|
  |1 + 2 + 3 + 4 + |1 + 2 + 3 + 4 + |1 + 2 + 3 + 4 + |1 + 2 + 3 + 4 + |

c |x-x-------------|------------x---|x-x------x------|---------|
Rd|------x-x-x-x-x-|x-x-x-x-x-x-----|-----------xXxxd|dXxxXxxdd|
S |----o-------o---|----o-------o-oo|----o-----------|---------|
B |o-o---o-o--o--o-|o-o---oo-o-o----|o-o---o--o------|---------|
  |1 + 2 + 3 + 4 + |1 + 2 + 3 + 4 + |1 + 2 + 3 + 4 + |1+a2+3+4+|

Rd|XxxXxxddXxxXxxdd|XxxXxxddXxxXxxdd|
  |1 + 2 + 3 + 4 + |1 + 2 + 3 + 4 + |

OUTRO (4.31)
Rd|XxxXxxddXxxXxxdd|XxxXxxddXxxXxxdd|XxxXxxddXxxXxxdd|XxxXxxddXxxXxdxx| 
  |1 + 2 + 3 + 4 + |1 + 2 + 3 + 4 + |1 + 2 + 3 + 4 + |1 + 2 + 3 + 4 + |

LR|-----------xx---|-----------xx---|-----------xx---|----------------| I don't know what the
Rd|XxxXxxddXxx--xdd|XxxXxxddXxx--xdd|XxxXxxddXxx--xdd|ddddxxddxxddxxxx| hell this cymbal is, so
  |1 + 2 + 3 + 4 + |1 + 2 + 3 + 4 + |1 + 2 + 3 + 4 + |1 + 2 + 3 + 4 + | I've put a Large Ride.

Rd|XxxXxxddXxxXxxdd|XxxXxxddXxxXxxdd|XxxXxxddXxxXxxdd|XxxXxxddXxxXxdxx|
  |1 + 2 + 3 + 4 + |1 + 2 + 3 + 4 + |1 + 2 + 3 + 4 + |1 + 2 + 3 + 4 + |

Rd|XxxXxxddXxxXxxdd|XxxXxxddXxxXxxdd|XxxXxxdddddddddd|b---------------|
S |----------------|----------------|----------------|----------oooooo|
Hf|----------------|----------------|----------------|----x-----------|
  |1 + 2 + 3 + 4 + |1 + 2 + 3 + 4 + |1 + 2 + 3 + 4 + |1 + 2 + 3 + 4 + |

C |x-------x-------|x---------------|x-------x-------|x---------------|
H |--x-x-x---x-x-x-|--x-x-x-x-x-x-x-|--x-x-x---x-x-x-|--x-x-x-x-x-x-x-|
S |----o-------o---|----o--o-o--og--|----o--o----o--o|----o--o-o--o--o|
B |o-o-----o-o-----|o-o---o---oo--o-|o-o-----o-o-----|o-o---o---oo--o-|
  |1 + 2 + 3 + 4 + |1 + 2 + 3 + 4 + |1 + 2 + 3 + 4 + |1 + 2 + 3 + 4 + |

C |x-------x-------|x---------------|x-------x-------|x---------------|
H |--x-x-x---x-x-x-|--x-x-x-x-x-x-x-|--x-x-x---x-x-x-|--x-x-x-x-x-x-x-|
S |----o--o----o--o|----o--o-o--og-o|----o--o----o--o|----o--o-o--og--|
B |o-o-----o-o-----|o-o---o---oo--o-|o-o-----o-o-----|o-o---o---oo--oo|
  |1 + 2 + 3 + 4 + |1 + 2 + 3 + 4 + |1 + 2 + 3 + 4 + |1 + 2 + 3 + 4 + |

C |x---x---x---x---|x---x-----------|x---x---x---x---|x---x-----------|
H |--x---x---x---x-|--x---x-x-x-x-x-|--x---x---x---x-|--x---x-x-x-x---|
S |og--o---og--o---|og--o--o-o--oo--|og--o---og--o---|og--o--o-o--o-f-|
B |--oo--o---oo--o-|--oo--o---oo--oo|--oo--o---oo--o-|--oo--o---oo-o--|
  |1 + 2 + 3 + 4 + |1 + 2 + 3 + 4 + |1 + 2 + 3 + 4 + |1 + 2 + 3 + 4 + |

C |xxxxxxxxxxx-----|----------------|
S |----------------|f---------------|
B |o---------o----o|-o--------------|
  |1 + 2 + 3 + 4 + |1 + 2 + 3 + 4 + |

	  

Search Paypal
auto scroll beats size up size down change color
tab show chords e-chords YouTube Clip e-chords hide all tabs e-chords go to top tab