Michael Jackson

home > Michael Jackson

Beat It (Ver.2) Drum Tab

Michael Jackson

Difficulty: ExpertExpert

by korlas

tuner correct add songbook print version text version save to e-mail
chordsukulelecavacokeyboardtabbassdrummharmonicsflute Guitar Pro
chords

Beat It (Ver.2)

	  INTRO 

T /---0---0---0----0--/---0---0---0----0--/ 
t /-0---0-0-0----0-0--/-0---0-0-0----0-0--/ 
B /---------0---------/---------0---------/ 

T /---0---0---0----0--/---0---0---0----0--/ 
t /-0---0-0-0----0-0--/-0---0-0-0----0-0--/ 
B /---------0---------/---------0---------/ 


HF/-X-X-X-X-X-X-X--X--/-X-X-X-X-X-X-X--X--/ 
T /---0---0---0----0--/---0---0---0----0--/ 
t /-0---0-0-0----0-0--/-0---0-0-0----0-0--/ 
B /---------0---------/---------0---------/ 


HF/-X-X-X-X-X-X-X--X--/-X-X-X-X-X-X-X--X--/ 
T /---0---0---0----0--/---0---0---0----0--/ 
t /-0---0-0-0----0-0--/-0---0-0-0----0-0--/ 
B /---------0---------/---------0---------/ 


HF/-X-X-X-X-X-X-X--X--/-X-X-X-X-X-X-X--X--/ 
T /---0---0---0----0--/---0---0---0----0--/ 
t /-0---0-0-0----0-0--/-0---0-0-0----0-0--/ 
B /---------0---------/---------0---------/ 


HF/-X-X-X-X-X-X-X--X--/-X-X-X-X-X-X-X--X--/ 
T /---0---0---0----0--/---0---0---0----0--/ 
t /-0---0-0-0----0-0--/-0---0-0-0----0-0--/ 
B /---------0---------/---------0---------/ 

HF/-X-X-X-X-X-X-X--X--/-X-X-X-X-X-X-X--X--/ 
T /---0---0---0----0--/---0---0---0----0--/ 
t /-0---0-0-0----0-0--/-0---0-0-0----0-0--/ 
B /---------0---------/---------0---------/ 

HF/-X-X-X-X-X-X-X--X--/-X-X-X-X-X-X-X--X--/ 
T /---0---0---0----0--/---0---0---0----0--/ 
t /-0---0-0-0----0-0--/-0---0-0-0----0-0--/ 
B /---------0---------/---------0---------/ 

HF/-X-X-X-X-X-X-X--X--/-X-X-X-X-X-X-X--X--/ 
T /---0---0---0----0--/---0---0---0----0--/ 
t /-0---0-0-0----0-0--/-0---0-0-0----0-0--/ 
B /---------0---------/---------0---------/ 

HF/-X-X-X-X-X-X-X--X--/-X-X-X-X-X-X-X--X--/ 
T /---0---0---0----0--/---0---0---0----0--/ 
t /-0---0-0-0----0-0--/-0---0-0-0----0-0--/ 
B /---------0---------/---------0---------/ 

HF/-X-X-X-X-X-X-X--X--/-X-X-X-X-X-X-X--X--/ 
T /---0---0---0----0--/---0---0---0----0--/ 
t /-0---0-0-0----0-0--/-0---0-0-0----0-0--/ 
B /---------0---------/---------0---------/ 

HF/-X-X-X-X-X-X-X--X--/-X-X-X-X-X-X-X--X--/ 
T /---0---0---0----0--/---0---0---0----0--/ 
t /-0---0-0-0----0-0--/-0---0-0-0----0-0--/ 
B /---------0---------/---------0---------/ 

HF/-X-X-X-X-X-X-X--X--/-X-X-X-X-X-X-X--X--/ 
T /---0---0---0----0--/---0---0---0----0--/ 
t /-0---0-0-0----0-0--/-0---0-0-0----0-0--/ 
B /---------0---------/---------0---------/ 

HF/-X-X-X-X-X-X-X--X--/-X-X-X-X-X-X-X--X--/ 
T /---0---0---0----0--/---0---0---0----0--/ 
t /-0---0-0-0----0-0--/-0---0-0-0----0-0--/ 
B /---------0---------/---------0---------/ 

HF/-X-X-X-X-X-X-X--X--/-X-X-X-X-X-X-X--X--/ 
T /---0---0---0----0--/---0---0---0----0--/ 
t /-0---0-0-0----0-0--/-0---0-0-0----0-0--/ 
B /---------0---------/---------0---------/ 

HF/-X-X-X-X-X-X-X--X--/-X-X-X-X-X-X-X--X--/ 
T /---0---0---0----0--/---0---0---0----0--/ 
t /-0---0-0-0----0-0--/-0---0-0-0----0-0--/ 
B /---------0---------/---------0---------/ 

HF/-X-X-X-X-X-X-X--X--/-X-X-X-X-X-X-X--X--/ 
T /---0---0---0----0--/---0---0---0----0--/ 
t /-0---0-0-0----0-0--/-0---0-0-0----0-0--/ 
B /---------0---------/---------0---------/ 

HF/-X-X-X-X-X-X-X--X--/-X-X-X-X-X-X-X--X--/ 
T /---0---0---0----0--/---0---0---0----0--/ 
t /-0---0-0-0----0-0--/-0---0-0-0----0-0--/ 
B /---------0---------/---------0---------/ 

HF/-X-X-X-X-X-X-X--X--/-X-X-X-X-X-X-X--X--/ 
T /---0---0---0----0--/---0---0---0----0--/ 
t /-0---0-0-0----0-0--/-0---0-0-0----0-0--/ 
B /---------0---------/---------0---------/ 

HF/-X-X-X-X-X-X-X--X--/-X-X-X-X-X-X-X--X--/ 
T /---0---0---0----0--/---0---0---0----0--/ 
t /-0---0-0-0----0-0--/-0---0-0-0----0-0--/ 
B /---------0---------/---------0---------/ 

HF/-X-X-X-X-X-X-X--X--/-X-X-X-X-X-X-X--X--/ 
T /---0---0---0----0--/---0---0---0----0--/ 
t /-0---0-0-0----0-0--/-0---0-0-0----0-0--/ 
B /---------0---------/---------0---------/ 

HF/-X-X-X-X-X-X-X--X--/-X-X-X-X-X-X-X--X--/ 
T /---0---0---0----0--/---0---0---0----0--/ 
t /-0---0-0-0----0-0--/-0---0-0-0----0-0--/ 
B /---------0---------/---------0---------/ 

HF/-X-X-X-X-X-X-X--X--/-X-X-X-X-X-X-X--X--/ 
T /---0---0---0----0--/---0---0---0----0--/ 
t /-0---0-0-0----0-0--/-0---0-0-0----0-0--/ 
B /---------0---------/---------0---------/ 


HF:HI HAT CON EL PIE 
T:TAROLA 
t:TOM DE PISO 
B:BOMBO 
	  

there isn't a video lesson for this song

request
Search
auto scroll beats size up size down change color
tab show chords e-chords YouTube Clip e-chords hide all tabs e-chords go to top tab