Thousand Foot Krutch

Oxygen

Thousand Foot Krutch

chords Beginner beginner

by  DEIVCAVALCANTI

save to print version add songbook text version e-mail correct tuner
chordsukulelecavacokeyboardtabbassdrumsharmonicaflute Guitar Pro
close

there isn't a video lesson for this song

chords

Oxygen

Key:  D More
Oxygen Key AA
Oxygen Key A#A#
Oxygen Key BB
Oxygen Key CC(one step down)
Oxygen Key C#C#(half step down)
Oxygen Key DD(original key)
Oxygen Key D#D#(half step up)
Oxygen Key EE(one step up)
Oxygen Key FF
Oxygen Key F#F#
Oxygen Key GG
Oxygen Key G#G#
	  		 

Tuning: Drop D 

This tab contains both Lead acoustic and Rhythm acoustic. 

Intro(0:00-0:08) 
Lead Acoustic 
e|---------------------------------------------------------------------------| 
B|---------------------------------------------------------------------------| 
G|---------------------------------------------------------------------------| 
d|-------11-------11-----------9-----9----------7-----7----------9-----9-----| 
A|----11-------11------------9-----9----------7-----7----------9-----9-----9-| 
D|-11-------11---------11-\9-----9-------9-\7-----7-------7-/9-----9-----9---| 

Verse I(0:08-0:26)(x2) 
Lead Acoustic 
e|---------------------------------------------------------------------------| 
B|---------------------------------------------------------------------------| 
G|---------------------------------------------------------------------------| 
d|-------11-------11-----------9-----9----------7-----7----------9-----9-----| 
A|----11-------11------------9-----9----------7-----7----------9-----9-----9-| 
D|-11-------11---------11-\9-----9-------9-\7-----7-------7-/9-----9-----9---| 

Pre-Chorus I(Same as Verse I)(0:26-0:44) 

Chorus(0:44-1:30) 
Lead Acoustic 
e|---------------------------------------------------------------------------| 
B|---------------------------------------------------------------------------| 
G|-----9------------9------------6--------------14---------------------------| 
d|---9------------9------------6-------------14------------------------------| 
A|-7------------7------------4------------12---------------------------------| 
D|---------------------------------------------------------------------------| 

e|---------------------------------------------------------------------------| 
B|---------------------------------------------------------------------------| 
G|-----9------------9------------6--------------14---------------------------| 
d|---9------------9------------6-------------14------------------------------| 
A|-7------------7------------4------------12---------------------------------| 
D|---------------------------------------------------------------------------| 

e|---------------------------------------------------------------------------| 
B|---------------------------------------------------------------------------| 
G|-----9------------9------------6--------------14---------------------------| 
d|---9------------9------------6-------------14------------------------------| 
A|-7------------7------------4------------12---------------------------------| 
D|---------------------------------------------------------------------------| 

e|---------------------------------------------------------------------------| 
B|---------------------------------------------------------------------------| 
G|-----9------------9------------6--------------14---------------------------| 
d|---9------------9------------6-------------14------------------------------| 
A|-7------------7------------4------------12---------------------------------| 
D|---------------------------------------------------------------------------| 

e|---------------------------------------------------------------------------| 
B|---------------------------------------------------------------------------| 
G|-----9------------9------------6--------------14---------------------------| 
d|---9------------9------------6-------------14------------------------------| 
A|-7------------7------------4------------12---------------------------------| 
D|---------------------------------------------------------------------------| 

Rhythm Acoustic (Starts at 1:03) 
e|---------------------------------------------------------------------------| 
B|---------------------------------------------------------------------------| 
G|-9--9--9--9--9--9--9--9-9-9--9--9--9--9--9--9--9-9-------------------------| 
d|-9--9--9--9--9--9--9--9-9-9--9--9--9--9--9--9--9-9-------------------------| 
A|-7--7--7--7--7--7--7--7-7-7--7--7--7--7--7--7--7-7-------------------------| 
D|---------------------------------------------------------------------------| 
(Palm-mute all chords above) 

e|---------------------------------------------------------------------------| 
B|---------------------------------------------------------------------------| 
G|-6--6--6--6--6--6--6--6-6-14--14--14--14--14--14--14--14-14----------------| 
d|-6--6--6--6--6--6--6--6-6-14--14--14--14--14--14--14--14-14----------------| 
A|-4--4--4--4--4--4--4--4-4-12--12--12--12--12--12--12--12-12----------------| 
D|---------------------------------------------------------------------------| 
(Palm-mute all chords above) 

e|---------------------------------------------------------------------------| 
B|---------------------------------------------------------------------------| 
G|-9--9--9--9--9--9--9--9-9-9--9--9--9--9--9--9--9-9-------------------------| 
d|-9--9--9--9--9--9--9--9-9-9--9--9--9--9--9--9--9-9-------------------------| 
A|-7--7--7--7--7--7--7--7-7-7--7--7--7--7--7--7--7-7-------------------------| 
D|---------------------------------------------------------------------------| 
(Palm-mute all chords above) 

e|---------------------------------------------------------------------------| 
B|---------------------------------------------------------------------------| 
G|-6--6--6--6--6--6--6--6-6-14--14--14--14--14--14--14--14-14----------------| 
d|-6--6--6--6--6--6--6--6-6-14--14--14--14--14--14--14--14-14----------------| 
A|-4--4--4--4--4--4--4--4-4-12--12--12--12--12--12--12--12-12----------------| 
D|---------------------------------------------------------------------------| 
(Palm-mute all chords above) 

e|---------------------------------------------------------------------------| 
B|---------------------------------------------------------------------------| 
G|-9--------9--------6--------14---------------------------------------------| 
d|-9--------9--------6--------14---------------------------------------------| 
A|-7--------7--------4--------12---------------------------------------------| 
D|---------------------------------------------------------------------------| 

Verse II(1:30-1:48)(Same as Verse I) 

Pre-Chorus II(1:48-2:06)(Same as Pre-Chorus I) 

Chorus II(2:06-3:01) 
Lead Acoustic 
e|---------------------------------------------------------------------------| 
B|---------------------------------------------------------------------------| 
G|-----9------------9------------6--------------14---------------------------| 
d|---9------------9------------6-------------14------------------------------| 
A|-7------------7------------4------------12---------------------------------| 
D|---------------------------------------------------------------------------| 

e|---------------------------------------------------------------------------| 
B|---------------------------------------------------------------------------| 
G|-----9------------9------------6--------------14---------------------------| 
d|---9------------9------------6-------------14------------------------------| 
A|-7------------7------------4------------12---------------------------------| 
D|---------------------------------------------------------------------------| 

e|---------------------------------------------------------------------------| 
B|---------------------------------------------------------------------------| 
G|-----9------------9------------6--------------14---------------------------| 
d|---9------------9------------6-------------14------------------------------| 
A|-7------------7------------4------------12---------------------------------| 
D|---------------------------------------------------------------------------| 

e|---------------------------------------------------------------------------| 
B|---------------------------------------------------------------------------| 
G|-----9------------9------------6--------------14---------------------------| 
d|---9------------9------------6-------------14------------------------------| 
A|-7------------7------------4------------12---------------------------------| 
D|---------------------------------------------------------------------------| 

e|---------------------------------------------------------------------------| 
B|---------------------------------------------------------------------------| 
G|-----9------------9------------6--------------14---------------------------| 
d|---9------------9------------6-------------14------------------------------| 
A|-7------------7------------4------------12---------------------------------| 
D|---------------------------------------------------------------------------| 

e|---------------------------------------------------------------------------| 
B|---------------------------------------------------------------------------| 
G|-----9------------9------------6--------------14---------------------------| 
d|---9------------9------------6-------------14------------------------------| 
A|-7------------7------------4------------12---------------------------------| 
D|---------------------------------------------------------------------------| 

Rhythm Acoustic (Starts at 2:24) 
e|---------------------------------------------------------------------------| 
B|---------------------------------------------------------------------------| 
G|-9--9--9--9--9--9--9--9-9-9--9--9--9--9--9--9--9-9-------------------------| 
d|-9--9--9--9--9--9--9--9-9-9--9--9--9--9--9--9--9-9-------------------------| 
A|-7--7--7--7--7--7--7--7-7-7--7--7--7--7--7--7--7-7-------------------------| 
D|---------------------------------------------------------------------------| 
(Palm-mute all chords above) 

e|---------------------------------------------------------------------------| 
B|---------------------------------------------------------------------------| 
G|-6--6--6--6--6--6--6--6-6-14--14--14--14--14--14--14--14-14----------------| 
d|-6--6--6--6--6--6--6--6-6-14--14--14--14--14--14--14--14-14----------------| 
A|-4--4--4--4--4--4--4--4-4-12--12--12--12--12--12--12--12-12----------------| 
D|---------------------------------------------------------------------------| 
(Palm-mute all chords above) 

e|---------------------------------------------------------------------------| 
B|---------------------------------------------------------------------------| 
G|-9--9--9--9--9--9--9--9-9-9--9--9--9--9--9--9--9-9-------------------------| 
d|-9--9--9--9--9--9--9--9-9-9--9--9--9--9--9--9--9-9-------------------------| 
A|-7--7--7--7--7--7--7--7-7-7--7--7--7--7--7--7--7-7-------------------------| 
D|---------------------------------------------------------------------------| 
(Palm-mute all chords above) 

e|---------------------------------------------------------------------------| 
B|---------------------------------------------------------------------------| 
G|-6--6--6--6--6--6--6--6-6-14--14--14--14--14--14--14--14-14----------------| 
d|-6--6--6--6--6--6--6--6-6-14--14--14--14--14--14--14--14-14----------------| 
A|-4--4--4--4--4--4--4--4-4-12--12--12--12--12--12--12--12-12----------------| 
D|---------------------------------------------------------------------------| 
(Palm-mute all chords above) 

e|---------------------------------------------------------------------------| 
B|---------------------------------------------------------------------------| 
G|-9--------9--------6--------14--------9--------9--------6--------14--------| 
d|-9--------9--------6--------14--------9--------9--------6--------14--------| 
A|-7--------7--------4--------12--------7--------7--------4--------12--------| 
D|---------------------------------------------------------------------------| 

Chorus IV/Outroduction)(3:01-3:51) 
Lead Acoustic 
e|---------------------------------------------------------------------------| 
B|---------------------------------------------------------------------------| 
G|---------------------------------------------------------------------------| 
d|-------11-------11-----------9-----9----------7-----7----------9-----9-----| 
A|----11-------11------------9-----9----------7-----7----------9-----9-----9-| 
D|-11-------11---------11-\9-----9-------9-\7-----7-------7-/9-----9-----9---| 

e|---------------------------------------------------------------------------| 
B|---------------------------------------------------------------------------| 
G|---------------------------------------------------------------------------| 
d|-------11-------11-----------9-----9----------7-----7----------9-----9-----| 
A|----11-------11------------9-----9----------7-----7----------9-----9-----9-| 
D|-11-------11---------11-\9-----9-------9-\7-----7-------7-/9-----9-----9---| 

e|---------------------------------------------------------------------------| 
B|---------------------------------------------------------------------------| 
G|-----9------------9------------6--------------14---------------------------| 
d|---9------------9------------6-------------14------------------------------| 
A|-7------------7------------4------------12---------------------------------| 
D|---------------------------------------------------------------------------| 

e|---------------------------------------------------------------------------| 
B|---------------------------------------------------------------------------| 
G|-----9------------9------------6--------------14---------------------------| 
d|---9------------9------------6-------------14------------------------------| 
A|-7------------7------------4------------12---------------------------------| 
D|---------------------------------------------------------------------------| 

Rhythm Guitar 
e|---------------------------------------------------------------------------| 
B|---------------------------------------------------------------------------| 
G|---------------------------------------------------------------------------| 
d|-11--11--11--11--11--11--11--11-11-9--9--9--9--9--9--9--9-9----------------| 
A|-11--11--11--11--11--11--11--11-11-9--9--9--9--9--9--9--9-9----------------| 
D|-11--11--11--11--11--11--11--11-11-9--9--9--9--9--9--9--9-9----------------| 

e|---------------------------------------------------------------------------| 
B|---------------------------------------------------------------------------| 
G|---------------------------------------------------------------------------| 
d|-7--7--7--7--7--7--7--7-7-9--9--9--9--9--9--9--9-9-------------------------| 
A|-7--7--7--7--7--7--7--7-7-9--9--9--9--9--9--9--9-9-------------------------| 
D|-7--7--7--7--7--7--7--7-7-9--9--9--9--9--9--9--9-9-------------------------| 

e|---------------------------------------------------------------------------| 
B|---------------------------------------------------------------------------| 
G|---------------------------------------------------------------------------| 
d|-11--11--11--11--11--11--11--11-11-9--9--9--9--9--9--9--9-9----------------| 
A|-11--11--11--11--11--11--11--11-11-9--9--9--9--9--9--9--9-9----------------| 
D|-11--11--11--11--11--11--11--11-11-9--9--9--9--9--9--9--9-9----------------| 

e|---------------------------------------------------------------------------| 
B|---------------------------------------------------------------------------| 
G|---------------------------------------------------------------------------| 
d|-7--7--7--7--7--7--7--7-7-9--9--9--9--9--9--9--9-9-------------------------| 
A|-7--7--7--7--7--7--7--7-7-9--9--9--9--9--9--9--9-9-------------------------| 
D|-7--7--7--7--7--7--7--7-7-9--9--9--9--9--9--9--9-9-------------------------| 

e|---------------------------------------------------------------------------| 
B|---------------------------------------------------------------------------| 
G|-9--------9--------6--------14--------9--------9--------6--------14--------| 
d|-9--------9--------6--------14--------9--------9--------6--------14--------| 
A|-7--------7--------4--------12--------7--------7--------4--------12--------| 
D|---------------------------------------------------------------------------| 

e|---------------------------------------------------------------------------| 
B|---------------------------------------------------------------------------| 
G|-9-------------------------------------------------------------------------| 
d|-9-(Let ring)--------------------------------------------------------------| 
A|-7-------------------------------------------------------------------------| 
D|---------------------------------------------------------------------------| 

************************************ 

| /   slide up 
| \   slide down 
| x   Mute note 

************************************ 
		  

Full key step upFull key step up
Half key step upHalf key step up
Half key step downHalf key step down
Full key step downFull key step down
hide glossary

See also:

chords A Great Big World - Say Something chords Jason Mraz - I Won't Give Up chords Mariah Carey - When you Believe chords John Legend - All Of Me chords Stevie Wonder - Isn't She Lovely chords Christina Perri - A Thousand Years
e-chords

Other versions:

chords Hoku - Oxygen chords Colbie Caillat - Oxygen chords Maia Mitchell - Oxygen chords New Found Glory - Oxygen chords Thousand Foot Krutch - Oxygen chords Soul Asylum - Oxygen
auto scroll beats size up size down change color hide chords simplify chords drawings columns
tab show chords e-chords YouTube Clip e-chords hide all tabs e-chords go to top tab

share