The Spill Canvas

Whiskey Dream Kathleen

The Spill Canvas

chords Easy easy

by  MARCNAGEL

save to print version add songbook text version e-mail correct tuner
chordsukulelecavacokeyboardtabbassdrumsharmonicaflute Guitar Pro
close

there isn't a video lesson for this song

chords

Whiskey Dream Kathleen

Capo on 3rd fret
	  		



Intro: 

         Dsus2 

e|---------------------------------0--------| 
B|--------------3---------------3-----3-----| 
G|--------------2---------------2--------2--| 
D|--------0--0------------0--0--------------| 
A|--0h2-------------0h2---------------------| 
E|------------------------------------------| 




Vers: 

         Dsus2 

e|---------------------------------0--------| 
B|--------------3---------------3-----3-----| 
G|--------------2---------------2--------2--| 
D|--------0--0------------0--0--------------| 
A|--0h2-------------0h2---------------------| 
E|------------------------------------------| 

               Whiskey dream, comfort me, 


     Cadd9 

e|---------------------------------| 
B|---3-------------------------3---| 
G|---0-------------------------2---| 
D|---2-------------------0--0------| 
A|---3-----------------------------| 
E|---------------------------------| 

   I fell asleep in my clothes 





     Asus4         G 
Come on Kathleen I know you dont wanna go 


         Dsus2 

e|---------------------------------0--------| 
B|--------------3---------------3-----3-----| 
G|--------------2---------------2--------2--| 
D|--------0--0------------0--0--------------| 
A|--0h2-------------0h2---------------------| 
E|------------------------------------------| 




         Dsus2 

e|---------------------------------0--------| 
B|--------------3---------------3-----3-----| 
G|--------------2---------------2--------2--| 
D|--------0--0------------0--0--------------| 
A|--0h2-------------0h2---------------------| 
E|------------------------------------------| 

   In your mothers car, its where I met your heart 



     Cadd9 

e|---------------------------------| 
B|---3-------------------------3---| 
G|---0-------------------------2---| 
D|---2-------------------0--0------| 
A|---3-----------------------------| 
E|---------------------------------| 

What a speech in parent, spectacle to see 

     Asus4         G 
Come on Kathleen I know you dont wanna leave 





tabchorus
Em G And it rattles me to my core Asus4 I swore Ill never let you slip through my fingers like you did G But you did Em G Now I feel that hallow swell and it hurts like hell Asus4 Do you ever think youre coming back G Please just come on back, home for good
tab
Dsus2 e|---------------------------------0--------| B|--------------3---------------3-----3-----| G|--------------2---------------2--------2--| D|--------0--0------------0--0--------------| A|------------------0h2---------------------| E|------------------------------------------| Vers: just like the first vers, except hold the last Asus4 and change to a Dsus2 Dsus2 Rosie sound paper tone, your breath filling up my lungs Cadd9 Dsus2 The 3 of us, a makeshift family Asus4 G Come on Kathleen I know you dont wanna leave Dsus2 To my baby girl in the picture, could you pass along that I miss her Cadd9 Dsus2 I know you still in there somewhere Asus4 Dsus2 Come on, Kathleen you know this aint fair
tabchorus
Em G And it rattles me to my core Asus4 I swore Ill never let you slip through my fingers like you did G But you did Em G Now I feel that hallow swell and it hurts like hell Asus4 Do you ever think youre coming back G Please just come on back, home for good
tab
Outro: Dsus2 e|-----------------0-----------------------0--------| B|--------------3----3------------------3-----3-----| G|--------------2------2----------------2--------2--| D|--------0--0--------------------0--0--------------| A|------------------------0h2-----------------------| E|--------------------------------------------------| Come on back home, come back home for good Dsus2 e|-----------------0-----------------------0--------| B|--------------3----3------------------3-----3-----| G|--------------2------2----------------2--------2--| D|--------0--0--------------------0--0--------------| A|--0h2---------------------0h2---------------------| E|--------------------------------------------------| Come on back home, come on back home for good Dsus2 e|-----------------0-----------------------0--------| B|--------------3----3------------------3-----3-----| G|--------------2------2----------------2--------2--| D|--------0--0--------------------0--0--------------| A|--0h2---------------------0h2---------------------| E|--------------------------------------------------| Come on back home, come on back home for good Cadd9 e|--------------------------------0--------| B|---3-------------------------3-----3-----| G|---0-------------------------2--------2--| D|---2-------------------0--0--------------| A|---3--------------0h2--------------------| E|-----------------------------------------| I fell asleep in my clothes Dsus2 e|-----------------0-----------------------0--------| B|--------------3----3------------------3-----3-----| G|--------------2------2----------------2--------2--| D|--------0--0--------------------0--0--------------| A|--0h2-------------------0h2-----------------------| E|--------------------------------------------------| Come on back home, come on back home for good (And it rattles me to my core) Come on back home, come on back home for good (I swore Ill never let you slip through my fingers like you did, but you did) Cadd9 e|--------------------------------0--------| B|---3-------------------------3-----3-----| G|---0-------------------------2--------2--| D|---2-------------------0--0--------------| A|---3--------------0h2--------------------| E|-----------------------------------------| I fell asleep in my clothes Dsus2 e|-----------------0-----------------------0--------| B|--------------3----3------------------3-----3-----| G|--------------2------2----------------2--------2--| D|--------0--0--------------------0--0--------------| A|--0h2-------------------0h2-----------------------| E|--------------------------------------------------| And it rattles me to my core Come on back home, come on back home for good I swore Ill never let you slip through my fingers like you did Cadd9 e|--------------------------------0-------------------| B|---3-------------------------3-----3----------------| G|---0-------------------------2--------2-------------| D|---2-------------------0--0-------------------0--0--| A|---3--------------0h2--------------------0h2--------| E|----------------------------------------------------| I fell asleep in my clothes Come on back home, come on back home for good.

Full key step upFull key step up
Half key step upHalf key step up
Half key step downHalf key step down
Full key step downFull key step down
hide glossary

See also:

chords Foster The People - Pumped Up Kicks chords Van Morrison - Have I told you lately chords Incubus - Drive chords Rufus Wainwright - Hallelujah chords Sublime - Santeria chords Red Hot Chili Peppers - By the way
e-chords

Other versions:

chords The Spill Canvas - Whiskey Dream Kathleen
auto scroll beats size up size down change color hide chords simplify chords drawings columns
tab show chords e-chords YouTube Clip e-chords hide all tabs e-chords go to top tab

share