Su Presencia

Cerca De Mi

Su Presencia

chords Intermediate intermediate

by  ANDRSOUZA

save to print version add songbook text version e-mail correct tuner
chordsukulelecavacokeyboardtabbassdrumsharmonicaflute Guitar Pro
close

there isn't a video lesson for this song

chords

Cerca De Mi

	  		
 A               B             E 
Quiero estar donde tu estas Señor 
  A           B            E 
Descansar y encontrar tu amor 
    A            B            E 
Tu dulce voz fluyendo al rededor 

Guitarra 2: 
 
E|---------------------------------------------------- 
B|-2-2-2-5-5-5--2-2-2-5-5-5--0-0-0-4-4-4--0-0-0-4-4-4- 
G|---------------------------------------------------- 
 

 
E|--------------------------------------------------- 
B|-4-4--2-2--1-2--1-1--4-4--2-2--1-2--1-1------------ 
G|--------------------------------------------------- 
 
  A         B              E 
Nada más, nada más que tu voz 

Guitarra 2: 
 
E|---------------------------------------------------- 
B|-2-2-2-5-5-5--2-2-2-5-5-5--0-0-0-4-4-4--0-0-0-4-4-4- 
G|---------------------------------------------------- 
 

 
E|--------------------------------------------------- 
B|-4-4--2-2--1-2--1-1--4-4--2-2--1-2--1-1------------ 
G|--------------------------------------------------- 
 
PRE CORO: 
      C#m                B                  A 
y postrado aquí en tu presencia encuentro paz 

Guitarra 2: 
 
E|-4-------------------2-------------------5-4----5-4- 
B|-5-------------------4----------------2S5---2S5----- 
G|-6-------------------4------------------------------ 
 
  
     C#m             B              A     B 
Y confiado en ti anhelo siempre estar OH UH OH 

Guitarra 2: 
 
G|-6-------------------4----------2-----------4- 
D|-6-------------------4----------2-----------4- 
A|-4-------------------2----------0-----------2- 
 
CORO: 
    C#m           A             E B 
Y quiero que Tú estés cerca de mí 
      C#m           A            E B 
Tú sabes que no podré vivir sin ti 
         C#m             A              E       B A 
Te quiero a ti y solo a ti te quiero a ti mi Señor 
		  

Full key step upFull key step up
Half key step upHalf key step up
Half key step downHalf key step down
Full key step downFull key step down
hide glossary

See also:

chords Ira! - Abraços e Brigas chords Deep Purple - When a Blind man cries chords Ira! - Flerte Fatal chords Deep Purple - Sweet Child in time chords Ike & Tina Turner - Proud Mary chords Deep Purple - Hallelujah
e-chords

Other versions:

chords Su Presencia - Cerca De Mi
auto scroll beats size up size down change color hide chords simplify chords drawings columns
tab show chords e-chords YouTube Clip e-chords hide all tabs e-chords go to top tab

share