Silence 4

home > Silence 4

Only pain is real Chords

Silence 4

Difficulty: nolevelnolevel

by destrudos

tuner correct add songbook print version text version save to e-mail
chordsukulelecavacokeyboardtabbassdrumsharmonicsflute Guitar Pro
chords

Only pain is real

  		C   332010 
C*  335553 
G   320033 
F   133211 
F#m 244222 
Am* 577555 
Am  002210  
Dm  x00231 
 
 
Intro: C Am * 
 
Bass line de início 
e |------------------------------------------------------------------------------------| 
B |------------------------------------------------------------------------------------| 
G |------------------------------------------------------------------------------------| 
D |------------------------------------------------------------------------------------| 
A |---5-5-5-5-5-5-5-5-----3-3-3-3-3-3-3-3-----0-0-0-0-0-0-0-0-0-0-0-0-0-0-0-0----------| 
E |------------------------------------------------------------------------------------| 
 
e |---------------------------------------------------0-----------------0--------------| 
B |-----------------------------------------------------0-----------------0------------| 
G |-------------------------------------------------------5-----------------5----------| 
D |------------------------------------------------------------------------------------| 
A |---5-5-5-5-5-5-5-5-----3-3-3-3-3-3-3-3-----0-0-0-0-----------0-0-0-0----------------| 
E |------------------------------------------------------------------------------------|
tab
C* You don't have to tell me what you came for Am* (yes I want it, I don't want it) C* Your eyes are beaming cirles on the floor Am* (yes I want it, I don't want it) F Your tongue like acid it burns my skin Am* (yes I want it, no I don't want it no) F I'm so defenseless from... C Am G F The lust, it fills my soul with screams C Am G F But when it stops, it kills, it makes me weak Dm C Am What do you want from me? G F Inside, only pain is real ( Os acordes do 2º verso são idênticos aos do 1º ) Isn't this room smaller than before? (yes I want it, I don't want it) Are we closer or are we just bored? (yes I want it, I don't want it) The lack of oxygen makes my head spin (yes I want it, no I don't want it no) And just for a moment... ( Os acordes do 2º Refrão são idênticos aos do 1º ) The love I feel so close, so real But then it's not, I die, I raped, I'm chilled Dm C Am What do you want from me? G Dm C Am F#m F you can't, I shake, I come, Burn... Am F#m F All I want it's not what I want Am F#m F Dm All you want it's never what I need C Am G Dm Still I tried, like a perfect mirror I do what I see fit Dm C Am G All you want is all I give, all is right F but inside, only pain is real Outro: C* Am* x2 F Am* F

Full key step upFull key step up
Half key step upHalf key step up
Half key step downHalf key step down
Full key step downFull key step down
are you left-handed?
hide glossary

See also:

Avenged Sevenfold - Warmness On The Soul The Clash - Should I Stay Or Should I Go Simple Plan - Perfect Third Eye Blind - Jumper Michael W. Smith - Open The Eyes Of My Heart Tenacious D - Tribute
e-chords

Other versions:

Silence 4 - Only pain is real
Search Paypal
auto scroll beats size up size down change color hide chords simplify chords drawings columns
tab show chords e-chords YouTube Clip e-chords hide all tabs e-chords go to top tab