Os Mutantes

home > Os Mutantes

A Minha Menina (ver. 2) Chords

Os Mutantes

Difficulty: ExpertExpert

by VELHO

tuner correct add songbook print version text version save to e-mail
chordsukulelecavacokeyboardtabbassdrumsharmonicsflute Guitar Pro
chords

A Minha Menina (ver. 2)

((Guitarra))

  		Intro: 
e|--5-3-----------------------------------------------3-5-6-5-   G5  C5  G5  C5  G5 
b|------5-5-3-------------------------------------3-5--------- 
g|------------4-5-3---------------------------3-5------------- 
d|------------------5-5-3-----------------3-5----------------- 
a|------------------------5-5-3-1---1-3-5--------------------- 
E|--------------------------------3--------------------------- 


Riff 
e|-----------------| 
b|-----------------| 
G|-----------------| 
D|-----------------| 
A|-1-1-0-0---------| 
E|---------4-3-3---| 


(G5   C5)         G5    C5  
Ela  minha menina  
G5        C5        G5    C5 
E eu sou o menino dela 
G5   C5         G5       C5  
Ela  o meu amor 
G5           C5           G5      C5    
E eu sou o amor todinho dela         
G5                     A5   
A lua prateada se escondeu  
B5          C5         G5                  C5              G5                                        
E o sol dourado apareceu    (bp tchuba bp bp tchuba i) 
                   A5 
Amanheceu um lindo dia 
               B5 
Cheirando a alegria 
            C5 
Pois eu sonhei 
                   D5 
E acordei pensando nela  
   
(Repetir Refro) 
  
   
G5                 A5   
A roseira j deu rosas 
B5          C5              G5                  C5              G5  
E a rosa que eu ganhei foi ela    (bp tchuba bp bp tchuba i) 
                           A5 
Por ela eu ponho o meu corao 
          B5 
Na frente da razo 
          C5 
E vou dizer pra todo mundo 
            D5      
Como gosto dela 
  
   
Solo: (G5) (Repetir Primeira Parte) (Repetir Refro) 
  
   
          G5       C5           G5       C5 
Minha meninaaaaaaa, minha meninaaaaaaa 

VELHO (BANDA VM's)
	  

Full key step upFull key step up
Half key step upHalf key step up
Half key step downHalf key step down
Full key step downFull key step down
Search Paypal
auto scroll beats size up size down change color hide chords simplify chords drawings columns
tab show chords e-chords YouTube Clip e-chords hide all tabs e-chords go to top tab