Ol '55

On The Prowl

Ol '55

chords Beginner beginner

save to print version add songbook text version e-mail correct tuner
chordsukulelecavacokeyboardtabbassdrumsharmonicaflute Guitar Pro
close

there isn't a video lesson for this song

chords

On The Prowl

	  		Australia 
On The Prowl - OL ?55		Tabbed by Freezex 
 
 
 
Intro Riff (x 2) 
e------------------------------------------------------- 
B------------------------------------------------------ 
G------------------------------------------------------ 
D------7--7--7----7--7------7--7--5--4---------5-- 
A---0-------------------0----------------7--7----- 
E------------------------------------------------------ 
 
 
 
A(riff 1)				     A(riff 1) 
Well I?ve been waiting and its a Saturday night 
        D (riff 2)                                 A(riff 1) 
And I called up the boys,We?re going cruising tonight 
           E  (riff  3)                           A(Riff 4 ) 
There?s a party on and they say it?s gonna be alright 
 
We parked our customs ,on somebodys front lawn 
And me and the boys , we sneak in the back door 
We mingle in like we done it a million times before 
 
A 
On the prowl..thats how we get our fun  
A 
On the prowl..now don?t you tell my mom 
D 
On the prowl..about the company I keep 
A 
On the prowl..you know it ain?t so discreet 
E                                        A(Riff 4 ) 
Prowling with the boys on a Saturday night 
 
Well all was quiet until we turned off the lights 
And I heard some shouting someone started a fight 
When I struck a match, I nearly dieded of fright 
		    A  D  C  A		           A  D  C  A 
Know what I saw		          good golly grief 
I was looking at the police chief 
 
On the prowl.now I?d seen it all 
On the prowl. the policemans ball 
On the prowl.they were everywhere 
On the prowl.so I ran for the stairs 
Prowling with the boys on a Saturday night 
 
The lights came on........ but we were gone 
I made it to the door at half the speed of light 
Got to my car...................I nearly died, 
There was a policeman sitting smiling inside 
 
On the prowl I didn?t know what to say 
On the prowl you know that crime does not pay 
On the prowl I knew I was done 
On the prowl coz he was wearing a gun 
Prowling with the boys on a Saturday night 
 
On the prowl all the boys had gone 
On the prowl left me all alone 
On the prowl towed away my car 
On the prowl I should have stayed at home 
Prowling with the boys on a Saturday night 
 
 
Riff 1  (x 2)           Riff 2  (x 2)      Riff 3  (x 2)       Riff 4 (played on sax) 
e-------------------/--------------------/------------------/------------------------------------------ 
B-------------------/--------------------/------------------/-10--10--10---10--10---10--10---8--7----8- 
G-------------------/---------------4----/--------------6-6-/--9---9---9----9---9----9---9--------9---- 
D---------------4---/------4-4--7-7---7--/-----6-6--9-9-----/------------------------------------------ 
A------4-4--7-7---7-/--5-5---------------/-7-7--------------/------------------------------------------ 
E--5-5--------------/--------------------/------------------/------------------------------------------ 
 
 

		  

Full key step upFull key step up
Half key step upHalf key step up
Half key step downHalf key step down
Full key step downFull key step down
hide glossary

See also:

chords Mental As Anything - Live It Up chords Midnight Oil - Earth And Sun And Moon chords Hoodoo Gurus - Another World chords John Butler Trio - Peaches & Cream chords The Wiggles - Twinkle Twinkle Little Star chords Richard Clapton - Best Years Of Our Lives
e-chords

Other versions:

auto scroll beats size up size down change color hide chords simplify chords drawings columns
tab show chords e-chords YouTube Clip e-chords hide all tabs e-chords go to top tab

share