La Trampa

Mar De Fondo

La Trampa

chords nolevel nolevel

by  PAULANTUNES

save to print version add songbook text version e-mail correct tuner
chordsukulelecavacokeyboardtabbassdrumsharmonicaflute Guitar Pro
close

there isn't a video lesson for this song

chords

Mar De Fondo

	  		(intro) 

E|----------------------------------------------- 
B|----------------------------------------------- 
G|-----------8-7-5-5-5-7------------------------- 
D|-5-5-5-8-7-8-7-5-5-5-7-5-5-5-8-7-3-3-3-3-3-3-4- 
A|-5-5-5-8-7-6-5-3-3-3-5-5-5-5-8-7-3-3-3-3-3-3-4- 
E|-3-3-3-6-5-------------3-3-3-6-5-1-1-1-1-1-1-2- 

E|----------------------------------------------- 
B|----------------------------------------------- 
G|-----------8-7-5-5-5-7---------7-7-7-7-7-7-7--- 
D|-5-5-5-8-7-8-7-5-5-5-7-5-5-5-8-7-7-7-7-7-7-7--- 
A|-5-5-5-8-7-6-5-3-3-3-5-5-5-5-8-7-5-5-5-5-5-5--- 
E|-3-3-3-6-5-------------3-3-3-6-5--------------- 

Eb                         Bb 
Mar de fondo en nuestro corazón, 
 do                  D7 
los demonios bailan sobre el 

temporal. 
Eb                     Bb 
Mar de fondo en nuestro corazón, 
 C                   D7 
se descuelgan flores sobre la 

ciudad 

Bb                       F 
Y en cada barra y en cada bar 
G                           D 
un vaso zarpa y se hace a la mar. 
Bb                       F 
Y un vaso vuelve sin capitán 
G                      D 
y apenas llega quiere zarpar. 

Y ve perderse a Montevideo, 
va navegando y siente el mareo. 
Lejos del puerto y de la ciudad 
las luces mueren y el alma va. 

E|----------------------------------------------- 
B|----------------------------------------------- 
G|--5-7-5-8---5-5-7-5-8--5-5-7-5-8--5-5-8-5-5-8--  (4x) 
D|--5-7-5-8---5-5-7-5-8--5-5-7-5-8--5-5-8-5-5-8-- 
A|--3-5-3-6---3-3-5-3-6--3-3-5-3-6--3-3-6-3-3-6-- 
E|----------------------------------------------- 

despues de esto hace otra vez el intro 
hacer estrofas y estribillo 
termina con el intro 

bueno gente esto es todo espero q les sirva. 
suena bastamte bien. ante cualquier consulta 
no duden y manden un mail. 
		  

Full key step upFull key step up
Half key step upHalf key step up
Half key step downHalf key step down
Full key step downFull key step down
hide glossary

See also:

chords Bruno Mars - Uptown Funk chords Bronco - Que No Quede Huella chords Bruno Mars - Just The Way You Are chords Bruno Mars - Locked Out Of Heaven chords Bruno Mars - Talking To The Moon chords Dragon Ball GT - Sorriso Resplandecente
e-chords

Other versions:

chords La Trampa - Mar De Fondo
auto scroll beats size up size down change color hide chords simplify chords drawings columns
tab show chords e-chords YouTube Clip e-chords hide all tabs e-chords go to top tab

share with facebook