Gian Marco

Tengo Un Amor

Gian Marco

chords Easy easy

by  GUSTSILVA

save to print version add songbook text version e-mail correct tuner
chordsukulelecavacokeyboardtabbassdrumsharmonicaflute Guitar Pro
close

there isn't a video lesson for this song

chords

Tengo Un Amor

	  		Dúo de Gian Marco & Pablo Herrera. 

IMPORTANTE: Capo en el 3er traste. 


Intro: 

         G             D           B7             Em 
e|--------------------------------------------------------------------- 
B|--------------------------------------------------------------------- 
G|-2s4--4--2--0--2--------0--2----4--2--0------------------------------ 
D|---------------------4----------------------0s2--0------------------- 
A|------------------------------------------------------0s2--3--------- 
E|--------------------------------------------------------------------- 


        C             Am              C          D         G 

e|--------------------------------------------------------------------- 
B|---2--2--0--------------0------------------0------------------------- 
G|------------2--0--0--2-----2-------0-0-0-2---2----------------------- 
D|------------------------------------------------4-5------------------ 
A|--------------------------------------------------------------------- 
----------------------------------------------------------------------- 

Verso I 


G 
Tengo un amor 

            D 
Que es un castigo del Señor 

Am                       Em 
Que me domina y me hace triza el corazón 

C                G 
Que me ha dejado solo 

            D      C - D 
Sin ver el sol... 

Verso II 


G 
Tengo un amor 

                 D 
Que es como un naufrago en el mar 

Am                         Em 
Que esta muy solo y nadie viene a rescatar 

C                  G 
Que se abraza a las olas 

          D   C - D 
Buscando paz 


CORO: 

           G 
Tengo un amor que no es amor 

              D 
Que me hace daño 

B7                      Em 
Mi corazón esta en sus manos 

C                    Am 
Me desespero y no tengo valor 

     C        D 
Para irme de ti 


           G 
Tengo un amor que no es amor 

             D 
Que me hace daño 

B7                      Em 
Mi corazón esta en sus manos 

C                    Am 
Me desespero y no tengo valor 

     C       D 
Para irme de ti 

     G 
amor... 

Verso III: 


G 
Tengo un amor 

            D 
Que es una celda, una prisión 

Am                          Em 
Que me condena y me ha encerrado en su dolor 

C                G 
Que me ha dejado solo 

            D    C D 
Sin ver el sol... 


CORO: 

           G 
Tengo un amor que no es amor 

              D 
Que me hace daño 

B7                      Em 
Mi corazón esta en sus manos 

C                    Am 
Me desespero y no tengo valor 

     C        D 
Para irme de ti 


           G 
Tengo un amor que no es amor 

             D 
Que me hace daño 

B7                      Em 
Mi corazón esta en sus manos 

C                    Am 
Me desespero y no tengo valor 

     C       D 
Para irme de ti 

     G - D - B7 - Em - C - Am - C - D 
amor... 

REPETIR CORO 

....................................... 
		  

Full key step upFull key step up
Half key step upHalf key step up
Half key step downHalf key step down
Full key step downFull key step down
auto scroll beats size up size down change color hide chords simplify chords drawings columns
tab show chords e-chords YouTube Clip e-chords hide all tabs e-chords go to top tab

share